  0
SECTION
  2
HEADER
  9
$ACADVER
  1
AC1009
  9
$ANGDIR
  70
0
  9
$CECOLOR
  62
256
  9
$CELTYPE
  6
BYLAYER
  9
$EXTMIN
  10
0.0
  20
0.0
  9
$EXTMAX
  10
0.7087
  20
0.6824
  9
$FILLMODE
  70
1
  9
$MIRRTEXT
  70
0
  0
ENDSEC
  0
SECTION
  2
TABLES
  0
TABLE
  2
LAYER
  70
17
  0
LAYER
  2
Top_Assy
  70
64
  62
1
  6
CONTINUOUS
  0
LAYER
  2
Top_Silk
  70
64
  62
2
  6
CONTINUOUS
  0
LAYER
  2
Top_Mask
  70
64
  62
3
  6
CONTINUOUS
  0
LAYER
  2
Top_Paste
  70
64
  62
4
  6
CONTINUOUS
  0
LAYER
  2
Top
  70
64
  62
5
  6
CONTINUOUS
  0
LAYER
  2
Bottom
  70
64
  62
6
  6
CONTINUOUS
  0
LAYER
  2
Drill_Top
  70
64
  62
7
  6
CONTINUOUS
  0
LAYER
  2
Drill_Bottom
  70
64
  62
8
  6
CONTINUOUS
  0
LAYER
  2
Bottom_Paste
  70
64
  62
9
  6
CONTINUOUS
  0
LAYER
  2
Bottom_Mask
  70
64
  62
10
  6
CONTINUOUS
  0
LAYER
  2
Bottom_Silk
  70
64
  62
11
  6
CONTINUOUS
  0
LAYER
  2
Bottom_Assy
  70
64
  62
12
  6
CONTINUOUS
  0
LAYER
  2
Board_Outline
  70
64
  62
13
  6
CONTINUOUS
  0
LAYER
  2
Top_Dimension
  70
64
  62
14
  6
CONTINUOUS
  0
LAYER
  2
Bottom_Dimension
  70
64
  62
15
  6
CONTINUOUS
  0
ENDTAB
  0
ENDSEC
  0
SECTION
  2
ENTITIES
  0
SOLID
  8
Top_Assy
  10
0.2433
  20
0.4602
  11
0.2059
  21
0.4602
  12
0.2433
  22
0.4798
  13
0.2059
  23
0.4798
  0
SOLID
  8
Top_Assy
  10
0.2433
  20
0.4142
  11
0.2059
  21
0.4142
  12
0.2433
  22
0.4338
  13
0.2059
  23
0.4338
  0
POLYLINE
  8
Top_Assy
  6
CONTINUOUS
  66
1
  70
0
  40
0.004
  41
0.004
  0
VERTEX
  8
Top_Assy
  10
0.2414
  20
0.4609
  42
0
  0
VERTEX
  8
Top_Assy
  10
0.2414
  20
0.4328
  42
0
  0
SEQEND
  0
POLYLINE
  8
Top_Assy
  6
CONTINUOUS
  66
1
  70
0
  40
0.002
  41
0.002
  0
VERTEX
  8
Top_Assy
  10
0.2404
  20
0.4609
  42
1
  0
VERTEX
  8
Top_Assy
  10
0.2424
  20
0.4609
  42
1
  0
VERTEX
  8
Top_Assy
  10
0.2404
  20
0.4609
  42
1
  0
SEQEND
  0
POLYLINE
  8
Top_Assy
  6
CONTINUOUS
  66
1
  70
0
  40
0.002
  41
0.002
  0
VERTEX
  8
Top_Assy
  10
0.2404
  20
0.4328
  42
1
  0
VERTEX
  8
Top_Assy
  10
0.2424
  20
0.4328
  42
1
  0
VERTEX
  8
Top_Assy
  10
0.2404
  20
0.4328
  42
1
  0
SEQEND
  0
POLYLINE
  8
Top_Assy
  6
CONTINUOUS
  66
1
  70
0
  40
0.004
  41
0.004
  0
VERTEX
  8
Top_Assy
  10
0.2079
  20
0.4609
  42
0
  0
VERTEX
  8
Top_Assy
  10
0.2079
  20
0.4328
  42
0
  0
SEQEND
  0
POLYLINE
  8
Top_Assy
  6
CONTINUOUS
  66
1
  70
0
  40
0.002
  41
0.002
  0
VERTEX
  8
Top_Assy
  10
0.2069
  20
0.4609
  42
1
  0
VERTEX
  8
Top_Assy
  10
0.2089
  20
0.4609
  42
1
  0
VERTEX
  8
Top_Assy
  10
0.2069
  20
0.4609
  42
1
  0
SEQEND
  0
POLYLINE
  8
Top_Assy
  6
CONTINUOUS
  66
1
  70
0
  40
0.002
  41
0.002
  0
VERTEX
  8
Top_Assy
  10
0.2069
  20
0.4328
  42
1
  0
VERTEX
  8
Top_Assy
  10
0.2089
  20
0.4328
  42
1
  0
VERTEX
  8
Top_Assy
  10
0.2069
  20
0.4328
  42
1
  0
SEQEND
  0
POLYLINE
  8
Top_Assy
  6
CONTINUOUS
  66
1
  70
0
  40
0.0098
  41
0.0098
  0
VERTEX
  8
Top_Assy
  10
0.115
  20
0.5736
  42
0
  0
VERTEX
  8
Top_Assy
  10
0.115
  20
0.0949
  42
0
  0
SEQEND
  0
POLYLINE
  8
Top_Assy
  6
CONTINUOUS
  66
1
  70
0
  40
0.0049
  41
0.0049
  0
VERTEX
  8
Top_Assy
  10
0.1125
  20
0.5736
  42
1
  0
VERTEX
  8
Top_Assy
  10
0.1174
  20
0.5736
  42
1
  0
VERTEX
  8
Top_Assy
  10
0.1125
  20
0.5736
  42
1
  0
SEQEND
  0
POLYLINE
  8
Top_Assy
  6
CONTINUOUS
  66
1
  70
0
  40
0.0049
  41
0.0049
  0
VERTEX
  8
Top_Assy
  10
0.1125
  20
0.0949
  42
1
  0
VERTEX
  8
Top_Assy
  10
0.1174
  20
0.0949
  42
1
  0
VERTEX
  8
Top_Assy
  10
0.1125
  20
0.0949
  42
1
  0
SEQEND
  0
POLYLINE
  8
Top_Assy
  6
CONTINUOUS
  66
1
  70
0
  40
0.0031
  41
0.0031
  0
VERTEX
  8
Top_Assy
  10
0.1514
  20
0.4337
  42
0
  0
VERTEX
  8
Top_Assy
  10
0.1313
  20
0.4337
  42
0
  0
VERTEX
  8
Top_Assy
  10
0.1313
  20
0.4251
  42
0
  0
VERTEX
  8
Top_Assy
  10
0.1323
  20
0.4222
  42
0
  0
VERTEX
  8
Top_Assy
  10
0.1332
  20
0.4212
  42
0
  0
VERTEX
  8
Top_Assy
  10
0.1352
  20
0.4203
  42
0
  0
VERTEX
  8
Top_Assy
  10
0.138
  20
0.4203
  42
0
  0
VERTEX
  8
Top_Assy
  10
0.1399
  20
0.4212
  42
0
  0
VERTEX
  8
Top_Assy
  10
0.1409
  20
0.4222
  42
0
  0
VERTEX
  8
Top_Assy
  10
0.1418
  20
0.4251
  42
0
  0
VERTEX
  8
Top_Assy
  10
0.1428
  20
0.4222
  42
0
  0
VERTEX
  8
Top_Assy
  10
0.1438
  20
0.4212
  42
0
  0
VERTEX
  8
Top_Assy
  10
0.1457
  20
0.4203
  42
0
  0
VERTEX
  8
Top_Assy
  10
0.1476
  20
0.4203
  42
0
  0
VERTEX
  8
Top_Assy
  10
0.1495
  20
0.4212
  42
0
  0
VERTEX
  8
Top_Assy
  10
0.1505
  20
0.4222
  42
0
  0
VERTEX
  8
Top_Assy
  10
0.1514
  20
0.4251
  42
0
  0
VERTEX
  8
Top_Assy
  10
0.1514
  20
0.4337
  42
0
  0
SEQEND
  0
POLYLINE
  8
Top_Assy
  6
CONTINUOUS
  66
1
  70
0
  40
0.0015
  41
0.0015
  0
VERTEX
  8
Top_Assy
  10
0.1507
  20
0.4337
  42
1
  0
VERTEX
  8
Top_Assy
  10
0.1522
  20
0.4337
  42
1
  0
VERTEX
  8
Top_Assy
  10
0.1507
  20
0.4337
  42
1
  0
SEQEND
  0
POLYLINE
  8
Top_Assy
  6
CONTINUOUS
  66
1
  70
0
  40
0.0031
  41
0.0031
  0
VERTEX
  8
Top_Assy
  10
0.1418
  20
0.4337
  42
0
  0
VERTEX
  8
Top_Assy
  10
0.1418
  20
0.4251
  42
0
  0
SEQEND
  0
POLYLINE
  8
Top_Assy
  6
CONTINUOUS
  66
1
  70
0
  40
0.0015
  41
0.0015
  0
VERTEX
  8
Top_Assy
  10
0.1411
  20
0.4337
  42
1
  0
VERTEX
  8
Top_Assy
  10
0.1426
  20
0.4337
  42
1
  0
VERTEX
  8
Top_Assy
  10
0.1411
  20
0.4337
  42
1
  0
SEQEND
  0
POLYLINE
  8
Top_Assy
  6
CONTINUOUS
  66
1
  70
0
  40
0.0015
  41
0.0015
  0
VERTEX
  8
Top_Assy
  10
0.1411
  20
0.4251
  42
1
  0
VERTEX
  8
Top_Assy
  10
0.1426
  20
0.4251
  42
1
  0
VERTEX
  8
Top_Assy
  10
0.1411
  20
0.4251
  42
1
  0
SEQEND
  0
POLYLINE
  8
Top_Assy
  6
CONTINUOUS
  66
1
  70
0
  40
0.0031
  41
0.0031
  0
VERTEX
  8
Top_Assy
  10
0.1514
  20
0.4084
  42
0
  0
VERTEX
  8
Top_Assy
  10
0.1505
  20
0.4103
  42
0
  0
VERTEX
  8
Top_Assy
  10
0.1485
  20
0.4122
  42
0
  0
VERTEX
  8
Top_Assy
  10
0.1466
  20
0.4132
  42
0
  0
VERTEX
  8
Top_Assy
  10
0.1438
  20
0.4141
  42
0
  0
VERTEX
  8
Top_Assy
  10
0.139
  20
0.4141
  42
0
  0
VERTEX
  8
Top_Assy
  10
0.1361
  20
0.4132
  42
0
  0
VERTEX
  8
Top_Assy
  10
0.1342
  20
0.4122
  42
0
  0
VERTEX
  8
Top_Assy
  10
0.1323
  20
0.4103
  42
0
  0
VERTEX
  8
Top_Assy
  10
0.1313
  20
0.4084
  42
0
  0
VERTEX
  8
Top_Assy
  10
0.1313
  20
0.4045
  42
0
  0
VERTEX
  8
Top_Assy
  10
0.1323
  20
0.4026
  42
0
  0
VERTEX
  8
Top_Assy
  10
0.1342
  20
0.4007
  42
0
  0
VERTEX
  8
Top_Assy
  10
0.1361
  20
0.3998
  42
0
  0
VERTEX
  8
Top_Assy
  10
0.139
  20
0.3988
  42
0
  0
VERTEX
  8
Top_Assy
  10
0.1438
  20
0.3988
  42
0
  0
VERTEX
  8
Top_Assy
  10
0.1466
  20
0.3998
  42
0
  0
VERTEX
  8
Top_Assy
  10
0.1485
  20
0.4007
  42
0
  0
VERTEX
  8
Top_Assy
  10
0.1505
  20
0.4026
  42
0
  0
VERTEX
  8
Top_Assy
  10
0.1514
  20
0.4045
  42
0
  0
VERTEX
  8
Top_Assy
  10
0.1514
  20
0.4084
  42
0
  0
SEQEND
  0
POLYLINE
  8
Top_Assy
  6
CONTINUOUS
  66
1
  70
0
  40
0.0015
  41
0.0015
  0
VERTEX
  8
Top_Assy
  10
0.1507
  20
0.4084
  42
1
  0
VERTEX
  8
Top_Assy
  10
0.1522
  20
0.4084
  42
1
  0
VERTEX
  8
Top_Assy
  10
0.1507
  20
0.4084
  42
1
  0
SEQEND
  0
POLYLINE
  8
Top_Assy
  6
CONTINUOUS
  66
1
  70
0
  40
0.0031
  41
0.0031
  0
VERTEX
  8
Top_Assy
  10
0.1313
  20
0.3773
  42
0
  0
VERTEX
  8
Top_Assy
  10
0.1514
  20
0.385
  42
0
  0
VERTEX
  8
Top_Assy
  10
0.1313
  20
0.3926
  42
0
  0
SEQEND
  0
POLYLINE
  8
Top_Assy
  6
CONTINUOUS
  66
1
  70
0
  40
0.0015
  41
0.0015
  0
VERTEX
  8
Top_Assy
  10
0.1306
  20
0.3773
  42
1
  0
VERTEX
  8
Top_Assy
  10
0.1321
  20
0.3773
  42
1
  0
VERTEX
  8
Top_Assy
  10
0.1306
  20
0.3773
  42
1
  0
SEQEND
  0
POLYLINE
  8
Top_Assy
  6
CONTINUOUS
  66
1
  70
0
  40
0.0015
  41
0.0015
  0
VERTEX
  8
Top_Assy
  10
0.1306
  20
0.3926
  42
1
  0
VERTEX
  8
Top_Assy
  10
0.1321
  20
0.3926
  42
1
  0
VERTEX
  8
Top_Assy
  10
0.1306
  20
0.3926
  42
1
  0
SEQEND
  0
POLYLINE
  8
Top_Assy
  6
CONTINUOUS
  66
1
  70
0
  40
0.0031
  41
0.0031
  0
VERTEX
  8
Top_Assy
  10
0.138
  20
0.3898
  42
0
  0
VERTEX
  8
Top_Assy
  10
0.138
  20
0.3802
  42
0
  0
SEQEND
  0
POLYLINE
  8
Top_Assy
  6
CONTINUOUS
  66
1
  70
0
  40
0.0015
  41
0.0015
  0
VERTEX
  8
Top_Assy
  10
0.1373
  20
0.3898
  42
1
  0
VERTEX
  8
Top_Assy
  10
0.1388
  20
0.3898
  42
1
  0
VERTEX
  8
Top_Assy
  10
0.1373
  20
0.3898
  42
1
  0
SEQEND
  0
POLYLINE
  8
Top_Assy
  6
CONTINUOUS
  66
1
  70
0
  40
0.0015
  41
0.0015
  0
VERTEX
  8
Top_Assy
  10
0.1373
  20
0.3802
  42
1
  0
VERTEX
  8
Top_Assy
  10
0.1388
  20
0.3802
  42
1
  0
VERTEX
  8
Top_Assy
  10
0.1373
  20
0.3802
  42
1
  0
SEQEND
  0
POLYLINE
  8
Top_Assy
  6
CONTINUOUS
  66
1
  70
0
  40
0.0031
  41
0.0031
  0
VERTEX
  8
Top_Assy
  10
0.1418
  20
0.3711
  42
0
  0
VERTEX
  8
Top_Assy
  10
0.1418
  20
0.3625
  42
0
  0
VERTEX
  8
Top_Assy
  10
0.1428
  20
0.3597
  42
0
  0
VERTEX
  8
Top_Assy
  10
0.1438
  20
0.3587
  42
0
  0
VERTEX
  8
Top_Assy
  10
0.1457
  20
0.3577
  42
0
  0
VERTEX
  8
Top_Assy
  10
0.1476
  20
0.3577
  42
0
  0
VERTEX
  8
Top_Assy
  10
0.1495
  20
0.3587
  42
0
  0
VERTEX
  8
Top_Assy
  10
0.1505
  20
0.3597
  42
0
  0
VERTEX
  8
Top_Assy
  10
0.1514
  20
0.3625
  42
0
  0
VERTEX
  8
Top_Assy
  10
0.1514
  20
0.3711
  42
0
  0
VERTEX
  8
Top_Assy
  10
0.1313
  20
0.3711
  42
0
  0
SEQEND
  0
POLYLINE
  8
Top_Assy
  6
CONTINUOUS
  66
1
  70
0
  40
0.0015
  41
0.0015
  0
VERTEX
  8
Top_Assy
  10
0.1411
  20
0.3711
  42
1
  0
VERTEX
  8
Top_Assy
  10
0.1426
  20
0.3711
  42
1
  0
VERTEX
  8
Top_Assy
  10
0.1411
  20
0.3711
  42
1
  0
SEQEND
  0
POLYLINE
  8
Top_Assy
  6
CONTINUOUS
  66
1
  70
0
  40
0.0015
  41
0.0015
  0
VERTEX
  8
Top_Assy
  10
0.1306
  20
0.3711
  42
1
  0
VERTEX
  8
Top_Assy
  10
0.1321
  20
0.3711
  42
1
  0
VERTEX
  8
Top_Assy
  10
0.1306
  20
0.3711
  42
1
  0
SEQEND
  0
POLYLINE
  8
Top_Assy
  6
CONTINUOUS
  66
1
  70
0
  40
0.0031
  41
0.0031
  0
VERTEX
  8
Top_Assy
  10
0.1418
  20
0.3644
  42
0
  0
VERTEX
  8
Top_Assy
  10
0.1313
  20
0.3577
  42
0
  0
SEQEND
  0
POLYLINE
  8
Top_Assy
  6
CONTINUOUS
  66
1
  70
0
  40
0.0015
  41
0.0015
  0
VERTEX
  8
Top_Assy
  10
0.1411
  20
0.3644
  42
1
  0
VERTEX
  8
Top_Assy
  10
0.1426
  20
0.3644
  42
1
  0
VERTEX
  8
Top_Assy
  10
0.1411
  20
0.3644
  42
1
  0
SEQEND
  0
POLYLINE
  8
Top_Assy
  6
CONTINUOUS
  66
1
  70
0
  40
0.0015
  41
0.0015
  0
VERTEX
  8
Top_Assy
  10
0.1306
  20
0.3577
  42
1
  0
VERTEX
  8
Top_Assy
  10
0.1321
  20
0.3577
  42
1
  0
VERTEX
  8
Top_Assy
  10
0.1306
  20
0.3577
  42
1
  0
SEQEND
  0
POLYLINE
  8
Top_Assy
  6
CONTINUOUS
  66
1
  70
0
  40
0.0031
  41
0.0031
  0
VERTEX
  8
Top_Assy
  10
0.1514
  20
0.3516
  42
0
  0
VERTEX
  8
Top_Assy
  10
0.1313
  20
0.3516
  42
0
  0
VERTEX
  8
Top_Assy
  10
0.1313
  20
0.3449
  42
0
  0
VERTEX
  8
Top_Assy
  10
0.1323
  20
0.342
  42
0
  0
VERTEX
  8
Top_Assy
  10
0.1342
  20
0.3401
  42
0
  0
VERTEX
  8
Top_Assy
  10
0.1361
  20
0.3391
  42
0
  0
VERTEX
  8
Top_Assy
  10
0.139
  20
0.3382
  42
0
  0
VERTEX
  8
Top_Assy
  10
0.1438
  20
0.3382
  42
0
  0
VERTEX
  8
Top_Assy
  10
0.1466
  20
0.3391
  42
0
  0
VERTEX
  8
Top_Assy
  10
0.1485
  20
0.3401
  42
0
  0
VERTEX
  8
Top_Assy
  10
0.1505
  20
0.342
  42
0
  0
VERTEX
  8
Top_Assy
  10
0.1514
  20
0.3449
  42
0
  0
VERTEX
  8
Top_Assy
  10
0.1514
  20
0.3516
  42
0
  0
SEQEND
  0
POLYLINE
  8
Top_Assy
  6
CONTINUOUS
  66
1
  70
0
  40
0.0015
  41
0.0015
  0
VERTEX
  8
Top_Assy
  10
0.1507
  20
0.3516
  42
1
  0
VERTEX
  8
Top_Assy
  10
0.1522
  20
0.3516
  42
1
  0
VERTEX
  8
Top_Assy
  10
0.1507
  20
0.3516
  42
1
  0
SEQEND
  0
POLYLINE
  8
Top_Assy
  6
CONTINUOUS
  66
1
  70
0
  40
0.0031
  41
0.0031
  0
VERTEX
  8
Top_Assy
  10
0.1514
  20
0.3001
  42
0
  0
VERTEX
  8
Top_Assy
  10
0.1514
  20
0.3125
  42
0
  0
VERTEX
  8
Top_Assy
  10
0.1313
  20
0.3125
  42
0
  0
VERTEX
  8
Top_Assy
  10
0.1313
  20
0.3001
  42
0
  0
SEQEND
  0
POLYLINE
  8
Top_Assy
  6
CONTINUOUS
  66
1
  70
0
  40
0.0015
  41
0.0015
  0
VERTEX
  8
Top_Assy
  10
0.1507
  20
0.3001
  42
1
  0
VERTEX
  8
Top_Assy
  10
0.1522
  20
0.3001
  42
1
  0
VERTEX
  8
Top_Assy
  10
0.1507
  20
0.3001
  42
1
  0
SEQEND
  0
POLYLINE
  8
Top_Assy
  6
CONTINUOUS
  66
1
  70
0
  40
0.0015
  41
0.0015
  0
VERTEX
  8
Top_Assy
  10
0.1306
  20
0.3001
  42
1
  0
VERTEX
  8
Top_Assy
  10
0.1321
  20
0.3001
  42
1
  0
VERTEX
  8
Top_Assy
  10
0.1306
  20
0.3001
  42
1
  0
SEQEND
  0
POLYLINE
  8
Top_Assy
  6
CONTINUOUS
  66
1
  70
0
  40
0.0031
  41
0.0031
  0
VERTEX
  8
Top_Assy
  10
0.1418
  20
0.3125
  42
0
  0
VERTEX
  8
Top_Assy
  10
0.1418
  20
0.3049
  42
0
  0
SEQEND
  0
POLYLINE
  8
Top_Assy
  6
CONTINUOUS
  66
1
  70
0
  40
0.0015
  41
0.0015
  0
VERTEX
  8
Top_Assy
  10
0.1411
  20
0.3125
  42
1
  0
VERTEX
  8
Top_Assy
  10
0.1426
  20
0.3125
  42
1
  0
VERTEX
  8
Top_Assy
  10
0.1411
  20
0.3125
  42
1
  0
SEQEND
  0
POLYLINE
  8
Top_Assy
  6
CONTINUOUS
  66
1
  70
0
  40
0.0015
  41
0.0015
  0
VERTEX
  8
Top_Assy
  10
0.1411
  20
0.3049
  42
1
  0
VERTEX
  8
Top_Assy
  10
0.1426
  20
0.3049
  42
1
  0
VERTEX
  8
Top_Assy
  10
0.1411
  20
0.3049
  42
1
  0
SEQEND
  0
POLYLINE
  8
Top_Assy
  6
CONTINUOUS
  66
1
  70
0
  40
0.0031
  41
0.0031
  0
VERTEX
  8
Top_Assy
  10
0.1514
  20
0.2939
  42
0
  0
VERTEX
  8
Top_Assy
  10
0.1313
  20
0.2939
  42
0
  0
VERTEX
  8
Top_Assy
  10
0.1313
  20
0.2872
  42
0
  0
VERTEX
  8
Top_Assy
  10
0.1323
  20
0.2844
  42
0
  0
VERTEX
  8
Top_Assy
  10
0.1342
  20
0.2824
  42
0
  0
VERTEX
  8
Top_Assy
  10
0.1361
  20
0.2815
  42
0
  0
VERTEX
  8
Top_Assy
  10
0.139
  20
0.2805
  42
0
  0
VERTEX
  8
Top_Assy
  10
0.1438
  20
0.2805
  42
0
  0
VERTEX
  8
Top_Assy
  10
0.1466
  20
0.2815
  42
0
  0
VERTEX
  8
Top_Assy
  10
0.1485
  20
0.2824
  42
0
  0
VERTEX
  8
Top_Assy
  10
0.1505
  20
0.2844
  42
0
  0
VERTEX
  8
Top_Assy
  10
0.1514
  20
0.2872
  42
0
  0
VERTEX
  8
Top_Assy
  10
0.1514
  20
0.2939
  42
0
  0
SEQEND
  0
POLYLINE
  8
Top_Assy
  6
CONTINUOUS
  66
1
  70
0
  40
0.0015
  41
0.0015
  0
VERTEX
  8
Top_Assy
  10
0.1507
  20
0.2939
  42
1
  0
VERTEX
  8
Top_Assy
  10
0.1522
  20
0.2939
  42
1
  0
VERTEX
  8
Top_Assy
  10
0.1507
  20
0.2939
  42
1
  0
SEQEND
  0
POLYLINE
  8
Top_Assy
  6
CONTINUOUS
  66
1
  70
0
  40
0.0031
  41
0.0031
  0
VERTEX
  8
Top_Assy
  10
0.1466
  20
0.26
  42
0
  0
VERTEX
  8
Top_Assy
  10
0.1485
  20
0.261
  42
0
  0
VERTEX
  8
Top_Assy
  10
0.1505
  20
0.2629
  42
0
  0
VERTEX
  8
Top_Assy
  10
0.1514
  20
0.2648
  42
0
  0
VERTEX
  8
Top_Assy
  10
0.1514
  20
0.2686
  42
0
  0
VERTEX
  8
Top_Assy
  10
0.1505
  20
0.2705
  42
0
  0
VERTEX
  8
Top_Assy
  10
0.1485
  20
0.2724
  42
0
  0
VERTEX
  8
Top_Assy
  10
0.1466
  20
0.2734
  42
0
  0
VERTEX
  8
Top_Assy
  10
0.1438
  20
0.2744
  42
0
  0
VERTEX
  8
Top_Assy
  10
0.139
  20
0.2744
  42
0
  0
VERTEX
  8
Top_Assy
  10
0.1361
  20
0.2734
  42
0
  0
VERTEX
  8
Top_Assy
  10
0.1342
  20
0.2724
  42
0
  0
VERTEX
  8
Top_Assy
  10
0.1323
  20
0.2705
  42
0
  0
VERTEX
  8
Top_Assy
  10
0.1313
  20
0.2686
  42
0
  0
VERTEX
  8
Top_Assy
  10
0.1313
  20
0.2648
  42
0
  0
VERTEX
  8
Top_Assy
  10
0.1323
  20
0.2629
  42
0
  0
VERTEX
  8
Top_Assy
  10
0.1342
  20
0.261
  42
0
  0
VERTEX
  8
Top_Assy
  10
0.1361
  20
0.26
  42
0
  0
VERTEX
  8
Top_Assy
  10
0.139
  20
0.26
  42
0
  0
VERTEX
  8
Top_Assy
  10
0.139
  20
0.2648
  42
0
  0
SEQEND
  0
POLYLINE
  8
Top_Assy
  6
CONTINUOUS
  66
1
  70
0
  40
0.0015
  41
0.0015
  0
VERTEX
  8
Top_Assy
  10
0.1459
  20
0.26
  42
1
  0
VERTEX
  8
Top_Assy
  10
0.1474
  20
0.26
  42
1
  0
VERTEX
  8
Top_Assy
  10
0.1459
  20
0.26
  42
1
  0
SEQEND
  0
POLYLINE
  8
Top_Assy
  6
CONTINUOUS
  66
1
  70
0
  40
0.0015
  41
0.0015
  0
VERTEX
  8
Top_Assy
  10
0.1382
  20
0.2648
  42
1
  0
VERTEX
  8
Top_Assy
  10
0.1397
  20
0.2648
  42
1
  0
VERTEX
  8
Top_Assy
  10
0.1382
  20
0.2648
  42
1
  0
SEQEND
  0
POLYLINE
  8
Top_Assy
  6
CONTINUOUS
  66
1
  70
0
  40
0.0031
  41
0.0031
  0
VERTEX
  8
Top_Assy
  10
0.1514
  20
0.2414
  42
0
  0
VERTEX
  8
Top_Assy
  10
0.1514
  20
0.2538
  42
0
  0
VERTEX
  8
Top_Assy
  10
0.1313
  20
0.2538
  42
0
  0
VERTEX
  8
Top_Assy
  10
0.1313
  20
0.2414
  42
0
  0
SEQEND
  0
POLYLINE
  8
Top_Assy
  6
CONTINUOUS
  66
1
  70
0
  40
0.0015
  41
0.0015
  0
VERTEX
  8
Top_Assy
  10
0.1507
  20
0.2414
  42
1
  0
VERTEX
  8
Top_Assy
  10
0.1522
  20
0.2414
  42
1
  0
VERTEX
  8
Top_Assy
  10
0.1507
  20
0.2414
  42
1
  0
SEQEND
  0
POLYLINE
  8
Top_Assy
  6
CONTINUOUS
  66
1
  70
0
  40
0.0015
  41
0.0015
  0
VERTEX
  8
Top_Assy
  10
0.1306
  20
0.2414
  42
1
  0
VERTEX
  8
Top_Assy
  10
0.1321
  20
0.2414
  42
1
  0
VERTEX
  8
Top_Assy
  10
0.1306
  20
0.2414
  42
1
  0
SEQEND
  0
POLYLINE
  8
Top_Assy
  6
CONTINUOUS
  66
1
  70
0
  40
0.0031
  41
0.0031
  0
VERTEX
  8
Top_Assy
  10
0.1418
  20
0.2538
  42
0
  0
VERTEX
  8
Top_Assy
  10
0.1418
  20
0.2462
  42
0
  0
SEQEND
  0
POLYLINE
  8
Top_Assy
  6
CONTINUOUS
  66
1
  70
0
  40
0.0015
  41
0.0015
  0
VERTEX
  8
Top_Assy
  10
0.1411
  20
0.2538
  42
1
  0
VERTEX
  8
Top_Assy
  10
0.1426
  20
0.2538
  42
1
  0
VERTEX
  8
Top_Assy
  10
0.1411
  20
0.2538
  42
1
  0
SEQEND
  0
POLYLINE
  8
Top_Assy
  6
CONTINUOUS
  66
1
  70
0
  40
0.0015
  41
0.0015
  0
VERTEX
  8
Top_Assy
  10
0.1411
  20
0.2462
  42
1
  0
VERTEX
  8
Top_Assy
  10
0.1426
  20
0.2462
  42
1
  0
VERTEX
  8
Top_Assy
  10
0.1411
  20
0.2462
  42
1
  0
SEQEND
  0
SOLID
  8
Top_Assy
  10
0.6425
  20
0.3863
  11
0.6799
  21
0.3863
  12
0.6425
  22
0.3666
  13
0.6799
  23
0.3666
  0
SOLID
  8
Top_Assy
  10
0.6425
  20
0.4323
  11
0.6799
  21
0.4323
  12
0.6425
  22
0.4126
  13
0.6799
  23
0.4126
  0
POLYLINE
  8
Top_Assy
  6
CONTINUOUS
  66
1
  70
0
  40
0.004
  41
0.004
  0
VERTEX
  8
Top_Assy
  10
0.6444
  20
0.3856
  42
0
  0
VERTEX
  8
Top_Assy
  10
0.6444
  20
0.4136
  42
0
  0
SEQEND
  0
POLYLINE
  8
Top_Assy
  6
CONTINUOUS
  66
1
  70
0
  40
0.002
  41
0.002
  0
VERTEX
  8
Top_Assy
  10
0.6434
  20
0.3856
  42
1
  0
VERTEX
  8
Top_Assy
  10
0.6454
  20
0.3856
  42
1
  0
VERTEX
  8
Top_Assy
  10
0.6434
  20
0.3856
  42
1
  0
SEQEND
  0
POLYLINE
  8
Top_Assy
  6
CONTINUOUS
  66
1
  70
0
  40
0.002
  41
0.002
  0
VERTEX
  8
Top_Assy
  10
0.6434
  20
0.4136
  42
1
  0
VERTEX
  8
Top_Assy
  10
0.6454
  20
0.4136
  42
1
  0
VERTEX
  8
Top_Assy
  10
0.6434
  20
0.4136
  42
1
  0
SEQEND
  0
POLYLINE
  8
Top_Assy
  6
CONTINUOUS
  66
1
  70
0
  40
0.004
  41
0.004
  0
VERTEX
  8
Top_Assy
  10
0.6779
  20
0.3856
  42
0
  0
VERTEX
  8
Top_Assy
  10
0.6779
  20
0.4136
  42
0
  0
SEQEND
  0
POLYLINE
  8
Top_Assy
  6
CONTINUOUS
  66
1
  70
0
  40
0.002
  41
0.002
  0
VERTEX
  8
Top_Assy
  10
0.6769
  20
0.3856
  42
1
  0
VERTEX
  8
Top_Assy
  10
0.6789
  20
0.3856
  42
1
  0
VERTEX
  8
Top_Assy
  10
0.6769
  20
0.3856
  42
1
  0
SEQEND
  0
POLYLINE
  8
Top_Assy
  6
CONTINUOUS
  66
1
  70
0
  40
0.002
  41
0.002
  0
VERTEX
  8
Top_Assy
  10
0.6769
  20
0.4136
  42
1
  0
VERTEX
  8
Top_Assy
  10
0.6789
  20
0.4136
  42
1
  0
VERTEX
  8
Top_Assy
  10
0.6769
  20
0.4136
  42
1
  0
SEQEND
  0
POLYLINE
  8
Top_Assy
  6
CONTINUOUS
  66
1
  70
0
  40
0.0013
  41
0.0013
  0
VERTEX
  8
Top_Assy
  10
0.0
  20
0.6693
  42
0
  0
VERTEX
  8
Top_Assy
  10
0.7087
  20
0.6693
  42
0
  0
VERTEX
  8
Top_Assy
  10
0.7087
  20
0.0
  42
0
  0
VERTEX
  8
Top_Assy
  10
0.0
  20
0.0
  42
0
  0
VERTEX
  8
Top_Assy
  10
0.0
  20
0.6693
  42
0
  0
SEQEND
  0
POLYLINE
  8
Top_Silk
  6
CONTINUOUS
  66
1
  70
0
  40
0.022
  41
0.022
  0
VERTEX
  8
Top_Silk
  10
0.2256
  20
0.4469
  42
0
  0
VERTEX
  8
Top_Silk
  10
0.2232
  20
0.4469
  42
0
  0
SEQEND
  0
POLYLINE
  8
Top_Silk
  6
CONTINUOUS
  66
1
  70
0
  40
0.011
  41
0.011
  0
VERTEX
  8
Top_Silk
  10
0.2201
  20
0.4469
  42
1
  0
VERTEX
  8
Top_Silk
  10
0.2311
  20
0.4469
  42
1
  0
VERTEX
  8
Top_Silk
  10
0.2201
  20
0.4469
  42
1
  0
SEQEND
  0
POLYLINE
  8
Top_Silk
  6
CONTINUOUS
  66
1
  70
0
  40
0.011
  41
0.011
  0
VERTEX
  8
Top_Silk
  10
0.2177
  20
0.4469
  42
1
  0
VERTEX
  8
Top_Silk
  10
0.2287
  20
0.4469
  42
1
  0
VERTEX
  8
Top_Silk
  10
0.2177
  20
0.4469
  42
1
  0
SEQEND
  0
POLYLINE
  8
Top_Silk
  6
CONTINUOUS
  66
1
  70
0
  40
0.0098
  41
0.0098
  0
VERTEX
  8
Top_Silk
  10
0.1051
  20
0.5343
  42
0
  0
VERTEX
  8
Top_Silk
  10
0.0051
  20
0.5343
  42
0
  0
VERTEX
  8
Top_Silk
  10
0.0051
  20
0.1342
  42
0
  0
VERTEX
  8
Top_Silk
  10
0.1051
  20
0.1342
  42
0
  0
VERTEX
  8
Top_Silk
  10
0.1051
  20
0.5343
  42
0
  0
SEQEND
  0
SOLID
  8
Top_Silk
  10
0.6464
  20
0.4086
  11
0.6764
  21
0.4086
  12
0.6464
  22
0.3906
  13
0.6764
  23
0.3906
  0
POLYLINE
  8
Top_Silk
  6
CONTINUOUS
  66
1
  70
0
  40
0.008
  41
0.008
  0
VERTEX
  8
Top_Silk
  10
0.3215
  20
0.1502
  42
0
  0
VERTEX
  8
Top_Silk
  10
0.3865
  20
0.1502
  42
0
  0
SEQEND
  0
POLYLINE
  8
Top_Silk
  6
CONTINUOUS
  66
1
  70
0
  40
0.004
  41
0.004
  0
VERTEX
  8
Top_Silk
  10
0.3195
  20
0.1502
  42
1
  0
VERTEX
  8
Top_Silk
  10
0.3235
  20
0.1502
  42
1
  0
VERTEX
  8
Top_Silk
  10
0.3195
  20
0.1502
  42
1
  0
SEQEND
  0
POLYLINE
  8
Top_Silk
  6
CONTINUOUS
  66
1
  70
0
  40
0.004
  41
0.004
  0
VERTEX
  8
Top_Silk
  10
0.3845
  20
0.1502
  42
1
  0
VERTEX
  8
Top_Silk
  10
0.3885
  20
0.1502
  42
1
  0
VERTEX
  8
Top_Silk
  10
0.3845
  20
0.1502
  42
1
  0
SEQEND
  0
POLYLINE
  8
Top_Silk
  6
CONTINUOUS
  66
1
  70
0
  40
0.008
  41
0.008
  0
VERTEX
  8
Top_Silk
  10
0.3115
  20
0.0802
  42
0
  0
VERTEX
  8
Top_Silk
  10
0.3115
  20
0.0795
  42
0
  0
VERTEX
  8
Top_Silk
  10
0.3116
  20
0.0787
  42
0
  0
VERTEX
  8
Top_Silk
  10
0.3118
  20
0.0779
  42
0
  0
VERTEX
  8
Top_Silk
  10
0.312
  20
0.0771
  42
0
  0
VERTEX
  8
Top_Silk
  10
0.3123
  20
0.0764
  42
0
  0
VERTEX
  8
Top_Silk
  10
0.3126
  20
0.0757
  42
0
  0
VERTEX
  8
Top_Silk
  10
0.313
  20
0.075
  42
0
  0
VERTEX
  8
Top_Silk
  10
0.3134
  20
0.0744
  42
0
  0
VERTEX
  8
Top_Silk
  10
0.3139
  20
0.0737
  42
0
  0
VERTEX
  8
Top_Silk
  10
0.3144
  20
0.0732
  42
0
  0
VERTEX
  8
Top_Silk
  10
0.315
  20
0.0726
  42
0
  0
VERTEX
  8
Top_Silk
  10
0.3156
  20
0.0721
  42
0
  0
VERTEX
  8
Top_Silk
  10
0.3163
  20
0.0717
  42
0
  0
VERTEX
  8
Top_Silk
  10
0.317
  20
0.0713
  42
0
  0
VERTEX
  8
Top_Silk
  10
0.3177
  20
0.071
  42
0
  0
VERTEX
  8
Top_Silk
  10
0.3184
  20
0.0707
  42
0
  0
VERTEX
  8
Top_Silk
  10
0.3192
  20
0.0705
  42
0
  0
VERTEX
  8
Top_Silk
  10
0.3199
  20
0.0704
  42
0
  0
VERTEX
  8
Top_Silk
  10
0.3207
  20
0.0703
  42
0
  0
VERTEX
  8
Top_Silk
  10
0.3215
  20
0.0702
  42
0
  0
SEQEND
  0
POLYLINE
  8
Top_Silk
  6
CONTINUOUS
  66
1
  70
0
  40
0.004
  41
0.004
  0
VERTEX
  8
Top_Silk
  10
0.3195
  20
0.0702
  42
1
  0
VERTEX
  8
Top_Silk
  10
0.3235
  20
0.0702
  42
1
  0
VERTEX
  8
Top_Silk
  10
0.3195
  20
0.0702
  42
1
  0
SEQEND
  0
POLYLINE
  8
Top_Silk
  6
CONTINUOUS
  66
1
  70
0
  40
0.004
  41
0.004
  0
VERTEX
  8
Top_Silk
  10
0.3095
  20
0.0802
  42
1
  0
VERTEX
  8
Top_Silk
  10
0.3135
  20
0.0802
  42
1
  0
VERTEX
  8
Top_Silk
  10
0.3095
  20
0.0802
  42
1
  0
SEQEND
  0
POLYLINE
  8
Top_Silk
  6
CONTINUOUS
  66
1
  70
0
  40
0.008
  41
0.008
  0
VERTEX
  8
Top_Silk
  10
0.3865
  20
0.0702
  42
0
  0
VERTEX
  8
Top_Silk
  10
0.3873
  20
0.0703
  42
0
  0
VERTEX
  8
Top_Silk
  10
0.3881
  20
0.0704
  42
0
  0
VERTEX
  8
Top_Silk
  10
0.3889
  20
0.0705
  42
0
  0
VERTEX
  8
Top_Silk
  10
0.3896
  20
0.0707
  42
0
  0
VERTEX
  8
Top_Silk
  10
0.3903
  20
0.071
  42
0
  0
VERTEX
  8
Top_Silk
  10
0.3911
  20
0.0713
  42
0
  0
VERTEX
  8
Top_Silk
  10
0.3917
  20
0.0717
  42
0
  0
VERTEX
  8
Top_Silk
  10
0.3924
  20
0.0721
  42
0
  0
VERTEX
  8
Top_Silk
  10
0.393
  20
0.0726
  42
0
  0
VERTEX
  8
Top_Silk
  10
0.3936
  20
0.0732
  42
0
  0
VERTEX
  8
Top_Silk
  10
0.3941
  20
0.0737
  42
0
  0
VERTEX
  8
Top_Silk
  10
0.3946
  20
0.0744
  42
0
  0
VERTEX
  8
Top_Silk
  10
0.395
  20
0.075
  42
0
  0
VERTEX
  8
Top_Silk
  10
0.3954
  20
0.0757
  42
0
  0
VERTEX
  8
Top_Silk
  10
0.3958
  20
0.0764
  42
0
  0
VERTEX
  8
Top_Silk
  10
0.396
  20
0.0771
  42
0
  0
VERTEX
  8
Top_Silk
  10
0.3962
  20
0.0779
  42
0
  0
VERTEX
  8
Top_Silk
  10
0.3964
  20
0.0787
  42
0
  0
VERTEX
  8
Top_Silk
  10
0.3965
  20
0.0795
  42
0
  0
VERTEX
  8
Top_Silk
  10
0.3965
  20
0.0802
  42
0
  0
SEQEND
  0
POLYLINE
  8
Top_Silk
  6
CONTINUOUS
  66
1
  70
0
  40
0.004
  41
0.004
  0
VERTEX
  8
Top_Silk
  10
0.3945
  20
0.0802
  42
1
  0
VERTEX
  8
Top_Silk
  10
0.3985
  20
0.0802
  42
1
  0
VERTEX
  8
Top_Silk
  10
0.3945
  20
0.0802
  42
1
  0
SEQEND
  0
POLYLINE
  8
Top_Silk
  6
CONTINUOUS
  66
1
  70
0
  40
0.004
  41
0.004
  0
VERTEX
  8
Top_Silk
  10
0.3845
  20
0.0702
  42
1
  0
VERTEX
  8
Top_Silk
  10
0.3885
  20
0.0702
  42
1
  0
VERTEX
  8
Top_Silk
  10
0.3845
  20
0.0702
  42
1
  0
SEQEND
  0
POLYLINE
  8
Top_Silk
  6
CONTINUOUS
  66
1
  70
0
  40
0.008
  41
0.008
  0
VERTEX
  8
Top_Silk
  10
0.3965
  20
0.1402
  42
0
  0
VERTEX
  8
Top_Silk
  10
0.3965
  20
0.141
  42
0
  0
VERTEX
  8
Top_Silk
  10
0.3964
  20
0.1418
  42
0
  0
VERTEX
  8
Top_Silk
  10
0.3962
  20
0.1426
  42
0
  0
VERTEX
  8
Top_Silk
  10
0.396
  20
0.1433
  42
0
  0
VERTEX
  8
Top_Silk
  10
0.3958
  20
0.1441
  42
0
  0
VERTEX
  8
Top_Silk
  10
0.3954
  20
0.1448
  42
0
  0
VERTEX
  8
Top_Silk
  10
0.395
  20
0.1455
  42
0
  0
VERTEX
  8
Top_Silk
  10
0.3946
  20
0.1461
  42
0
  0
VERTEX
  8
Top_Silk
  10
0.3941
  20
0.1467
  42
0
  0
VERTEX
  8
Top_Silk
  10
0.3936
  20
0.1473
  42
0
  0
VERTEX
  8
Top_Silk
  10
0.393
  20
0.1478
  42
0
  0
VERTEX
  8
Top_Silk
  10
0.3924
  20
0.1483
  42
0
  0
VERTEX
  8
Top_Silk
  10
0.3917
  20
0.1488
  42
0
  0
VERTEX
  8
Top_Silk
  10
0.3911
  20
0.1491
  42
0
  0
VERTEX
  8
Top_Silk
  10
0.3903
  20
0.1495
  42
0
  0
VERTEX
  8
Top_Silk
  10
0.3896
  20
0.1497
  42
0
  0
VERTEX
  8
Top_Silk
  10
0.3889
  20
0.15
  42
0
  0
VERTEX
  8
Top_Silk
  10
0.3881
  20
0.1501
  42
0
  0
VERTEX
  8
Top_Silk
  10
0.3873
  20
0.1502
  42
0
  0
VERTEX
  8
Top_Silk
  10
0.3865
  20
0.1502
  42
0
  0
SEQEND
  0
POLYLINE
  8
Top_Silk
  6
CONTINUOUS
  66
1
  70
0
  40
0.004
  41
0.004
  0
VERTEX
  8
Top_Silk
  10
0.3945
  20
0.1402
  42
1
  0
VERTEX
  8
Top_Silk
  10
0.3985
  20
0.1402
  42
1
  0
VERTEX
  8
Top_Silk
  10
0.3945
  20
0.1402
  42
1
  0
SEQEND
  0
POLYLINE
  8
Top_Silk
  6
CONTINUOUS
  66
1
  70
0
  40
0.004
  41
0.004
  0
VERTEX
  8
Top_Silk
  10
0.3845
  20
0.1502
  42
1
  0
VERTEX
  8
Top_Silk
  10
0.3885
  20
0.1502
  42
1
  0
VERTEX
  8
Top_Silk
  10
0.3845
  20
0.1502
  42
1
  0
SEQEND
  0
POLYLINE
  8
Top_Silk
  6
CONTINUOUS
  66
1
  70
0
  40
0.008
  41
0.008
  0
VERTEX
  8
Top_Silk
  10
0.3215
  20
0.1502
  42
0
  0
VERTEX
  8
Top_Silk
  10
0.3207
  20
0.1502
  42
0
  0
VERTEX
  8
Top_Silk
  10
0.3199
  20
0.1501
  42
0
  0
VERTEX
  8
Top_Silk
  10
0.3192
  20
0.15
  42
0
  0
VERTEX
  8
Top_Silk
  10
0.3184
  20
0.1497
  42
0
  0
VERTEX
  8
Top_Silk
  10
0.3177
  20
0.1495
  42
0
  0
VERTEX
  8
Top_Silk
  10
0.317
  20
0.1491
  42
0
  0
VERTEX
  8
Top_Silk
  10
0.3163
  20
0.1488
  42
0
  0
VERTEX
  8
Top_Silk
  10
0.3156
  20
0.1483
  42
0
  0
VERTEX
  8
Top_Silk
  10
0.315
  20
0.1478
  42
0
  0
VERTEX
  8
Top_Silk
  10
0.3144
  20
0.1473
  42
0
  0
VERTEX
  8
Top_Silk
  10
0.3139
  20
0.1467
  42
0
  0
VERTEX
  8
Top_Silk
  10
0.3134
  20
0.1461
  42
0
  0
VERTEX
  8
Top_Silk
  10
0.313
  20
0.1455
  42
0
  0
VERTEX
  8
Top_Silk
  10
0.3126
  20
0.1448
  42
0
  0
VERTEX
  8
Top_Silk
  10
0.3123
  20
0.1441
  42
0
  0
VERTEX
  8
Top_Silk
  10
0.312
  20
0.1433
  42
0
  0
VERTEX
  8
Top_Silk
  10
0.3118
  20
0.1426
  42
0
  0
VERTEX
  8
Top_Silk
  10
0.3116
  20
0.1418
  42
0
  0
VERTEX
  8
Top_Silk
  10
0.3115
  20
0.141
  42
0
  0
VERTEX
  8
Top_Silk
  10
0.3115
  20
0.1402
  42
0
  0
SEQEND
  0
POLYLINE
  8
Top_Silk
  6
CONTINUOUS
  66
1
  70
0
  40
0.004
  41
0.004
  0
VERTEX
  8
Top_Silk
  10
0.3195
  20
0.1502
  42
1
  0
VERTEX
  8
Top_Silk
  10
0.3235
  20
0.1502
  42
1
  0
VERTEX
  8
Top_Silk
  10
0.3195
  20
0.1502
  42
1
  0
SEQEND
  0
POLYLINE
  8
Top_Silk
  6
CONTINUOUS
  66
1
  70
0
  40
0.004
  41
0.004
  0
VERTEX
  8
Top_Silk
  10
0.3095
  20
0.1402
  42
1
  0
VERTEX
  8
Top_Silk
  10
0.3135
  20
0.1402
  42
1
  0
VERTEX
  8
Top_Silk
  10
0.3095
  20
0.1402
  42
1
  0
SEQEND
  0
POLYLINE
  8
Top_Silk
  6
CONTINUOUS
  66
1
  70
0
  40
0.008
  41
0.008
  0
VERTEX
  8
Top_Silk
  10
0.3865
  20
0.0702
  42
0
  0
VERTEX
  8
Top_Silk
  10
0.3215
  20
0.0702
  42
0
  0
SEQEND
  0
POLYLINE
  8
Top_Silk
  6
CONTINUOUS
  66
1
  70
0
  40
0.004
  41
0.004
  0
VERTEX
  8
Top_Silk
  10
0.3845
  20
0.0702
  42
1
  0
VERTEX
  8
Top_Silk
  10
0.3885
  20
0.0702
  42
1
  0
VERTEX
  8
Top_Silk
  10
0.3845
  20
0.0702
  42
1
  0
SEQEND
  0
POLYLINE
  8
Top_Silk
  6
CONTINUOUS
  66
1
  70
0
  40
0.004
  41
0.004
  0
VERTEX
  8
Top_Silk
  10
0.3195
  20
0.0702
  42
1
  0
VERTEX
  8
Top_Silk
  10
0.3235
  20
0.0702
  42
1
  0
VERTEX
  8
Top_Silk
  10
0.3195
  20
0.0702
  42
1
  0
SEQEND
  0
CIRCLE
  8
Top_Silk
  10
0.2888
  20
0.218
  40
0.0037
  0
POLYLINE
  8
Top_Silk
  6
CONTINUOUS
  66
1
  70
0
  40
0.008
  41
0.008
  0
VERTEX
  8
Top_Silk
  10
0.3053
  20
0.2727
  42
0
  0
VERTEX
  8
Top_Silk
  10
0.2679
  20
0.2727
  42
0
  0
SEQEND
  0
POLYLINE
  8
Top_Silk
  6
CONTINUOUS
  66
1
  70
0
  40
0.004
  41
0.004
  0
VERTEX
  8
Top_Silk
  10
0.3033
  20
0.2727
  42
1
  0
VERTEX
  8
Top_Silk
  10
0.3073
  20
0.2727
  42
1
  0
VERTEX
  8
Top_Silk
  10
0.3033
  20
0.2727
  42
1
  0
SEQEND
  0
POLYLINE
  8
Top_Silk
  6
CONTINUOUS
  66
1
  70
0
  40
0.004
  41
0.004
  0
VERTEX
  8
Top_Silk
  10
0.2659
  20
0.2727
  42
1
  0
VERTEX
  8
Top_Silk
  10
0.2699
  20
0.2727
  42
1
  0
VERTEX
  8
Top_Silk
  10
0.2659
  20
0.2727
  42
1
  0
SEQEND
  0
POLYLINE
  8
Top_Silk
  6
CONTINUOUS
  66
1
  70
0
  40
0.008
  41
0.008
  0
VERTEX
  8
Top_Silk
  10
0.2679
  20
0.2727
  42
0
  0
VERTEX
  8
Top_Silk
  10
0.2679
  20
0.4649
  42
0
  0
SEQEND
  0
POLYLINE
  8
Top_Silk
  6
CONTINUOUS
  66
1
  70
0
  40
0.004
  41
0.004
  0
VERTEX
  8
Top_Silk
  10
0.2659
  20
0.2727
  42
1
  0
VERTEX
  8
Top_Silk
  10
0.2699
  20
0.2727
  42
1
  0
VERTEX
  8
Top_Silk
  10
0.2659
  20
0.2727
  42
1
  0
SEQEND
  0
POLYLINE
  8
Top_Silk
  6
CONTINUOUS
  66
1
  70
0
  40
0.004
  41
0.004
  0
VERTEX
  8
Top_Silk
  10
0.2659
  20
0.4649
  42
1
  0
VERTEX
  8
Top_Silk
  10
0.2699
  20
0.4649
  42
1
  0
VERTEX
  8
Top_Silk
  10
0.2659
  20
0.4649
  42
1
  0
SEQEND
  0
POLYLINE
  8
Top_Silk
  6
CONTINUOUS
  66
1
  70
0
  40
0.008
  41
0.008
  0
VERTEX
  8
Top_Silk
  10
0.2679
  20
0.4649
  42
0
  0
VERTEX
  8
Top_Silk
  10
0.3033
  20
0.4649
  42
0
  0
SEQEND
  0
POLYLINE
  8
Top_Silk
  6
CONTINUOUS
  66
1
  70
0
  40
0.004
  41
0.004
  0
VERTEX
  8
Top_Silk
  10
0.2659
  20
0.4649
  42
1
  0
VERTEX
  8
Top_Silk
  10
0.2699
  20
0.4649
  42
1
  0
VERTEX
  8
Top_Silk
  10
0.2659
  20
0.4649
  42
1
  0
SEQEND
  0
POLYLINE
  8
Top_Silk
  6
CONTINUOUS
  66
1
  70
0
  40
0.004
  41
0.004
  0
VERTEX
  8
Top_Silk
  10
0.3013
  20
0.4649
  42
1
  0
VERTEX
  8
Top_Silk
  10
0.3053
  20
0.4649
  42
1
  0
VERTEX
  8
Top_Silk
  10
0.3013
  20
0.4649
  42
1
  0
SEQEND
  0
POLYLINE
  8
Top_Silk
  6
CONTINUOUS
  66
1
  70
0
  40
0.008
  41
0.008
  0
VERTEX
  8
Top_Silk
  10
0.5218
  20
0.4649
  42
0
  0
VERTEX
  8
Top_Silk
  10
0.5593
  20
0.4649
  42
0
  0
SEQEND
  0
POLYLINE
  8
Top_Silk
  6
CONTINUOUS
  66
1
  70
0
  40
0.004
  41
0.004
  0
VERTEX
  8
Top_Silk
  10
0.5198
  20
0.4649
  42
1
  0
VERTEX
  8
Top_Silk
  10
0.5238
  20
0.4649
  42
1
  0
VERTEX
  8
Top_Silk
  10
0.5198
  20
0.4649
  42
1
  0
SEQEND
  0
POLYLINE
  8
Top_Silk
  6
CONTINUOUS
  66
1
  70
0
  40
0.004
  41
0.004
  0
VERTEX
  8
Top_Silk
  10
0.5573
  20
0.4649
  42
1
  0
VERTEX
  8
Top_Silk
  10
0.5613
  20
0.4649
  42
1
  0
VERTEX
  8
Top_Silk
  10
0.5573
  20
0.4649
  42
1
  0
SEQEND
  0
POLYLINE
  8
Top_Silk
  6
CONTINUOUS
  66
1
  70
0
  40
0.008
  41
0.008
  0
VERTEX
  8
Top_Silk
  10
0.5593
  20
0.4649
  42
0
  0
VERTEX
  8
Top_Silk
  10
0.5593
  20
0.2727
  42
0
  0
SEQEND
  0
POLYLINE
  8
Top_Silk
  6
CONTINUOUS
  66
1
  70
0
  40
0.004
  41
0.004
  0
VERTEX
  8
Top_Silk
  10
0.5573
  20
0.4649
  42
1
  0
VERTEX
  8
Top_Silk
  10
0.5613
  20
0.4649
  42
1
  0
VERTEX
  8
Top_Silk
  10
0.5573
  20
0.4649
  42
1
  0
SEQEND
  0
POLYLINE
  8
Top_Silk
  6
CONTINUOUS
  66
1
  70
0
  40
0.004
  41
0.004
  0
VERTEX
  8
Top_Silk
  10
0.5573
  20
0.2727
  42
1
  0
VERTEX
  8
Top_Silk
  10
0.5613
  20
0.2727
  42
1
  0
VERTEX
  8
Top_Silk
  10
0.5573
  20
0.2727
  42
1
  0
SEQEND
  0
POLYLINE
  8
Top_Silk
  6
CONTINUOUS
  66
1
  70
0
  40
0.008
  41
0.008
  0
VERTEX
  8
Top_Silk
  10
0.5593
  20
0.2727
  42
0
  0
VERTEX
  8
Top_Silk
  10
0.5218
  20
0.2727
  42
0
  0
SEQEND
  0
POLYLINE
  8
Top_Silk
  6
CONTINUOUS
  66
1
  70
0
  40
0.004
  41
0.004
  0
VERTEX
  8
Top_Silk
  10
0.5573
  20
0.2727
  42
1
  0
VERTEX
  8
Top_Silk
  10
0.5613
  20
0.2727
  42
1
  0
VERTEX
  8
Top_Silk
  10
0.5573
  20
0.2727
  42
1
  0
SEQEND
  0
POLYLINE
  8
Top_Silk
  6
CONTINUOUS
  66
1
  70
0
  40
0.004
  41
0.004
  0
VERTEX
  8
Top_Silk
  10
0.5198
  20
0.2727
  42
1
  0
VERTEX
  8
Top_Silk
  10
0.5238
  20
0.2727
  42
1
  0
VERTEX
  8
Top_Silk
  10
0.5198
  20
0.2727
  42
1
  0
SEQEND
  0
POLYLINE
  8
Top_Silk
  6
CONTINUOUS
  66
1
  70
0
  40
0.008
  41
0.008
  0
VERTEX
  8
Top_Silk
  10
0.3305
  20
0.3314
  42
0
  0
VERTEX
  8
Top_Silk
  10
0.3305
  20
0.4062
  42
0
  0
SEQEND
  0
POLYLINE
  8
Top_Silk
  6
CONTINUOUS
  66
1
  70
0
  40
0.004
  41
0.004
  0
VERTEX
  8
Top_Silk
  10
0.3285
  20
0.3314
  42
1
  0
VERTEX
  8
Top_Silk
  10
0.3325
  20
0.3314
  42
1
  0
VERTEX
  8
Top_Silk
  10
0.3285
  20
0.3314
  42
1
  0
SEQEND
  0
POLYLINE
  8
Top_Silk
  6
CONTINUOUS
  66
1
  70
0
  40
0.004
  41
0.004
  0
VERTEX
  8
Top_Silk
  10
0.3285
  20
0.4062
  42
1
  0
VERTEX
  8
Top_Silk
  10
0.3325
  20
0.4062
  42
1
  0
VERTEX
  8
Top_Silk
  10
0.3285
  20
0.4062
  42
1
  0
SEQEND
  0
POLYLINE
  8
Top_Silk
  6
CONTINUOUS
  66
1
  70
0
  40
0.008
  41
0.008
  0
VERTEX
  8
Top_Silk
  10
0.3305
  20
0.4062
  42
0
  0
VERTEX
  8
Top_Silk
  10
0.3541
  20
0.4062
  42
0
  0
SEQEND
  0
POLYLINE
  8
Top_Silk
  6
CONTINUOUS
  66
1
  70
0
  40
0.004
  41
0.004
  0
VERTEX
  8
Top_Silk
  10
0.3285
  20
0.4062
  42
1
  0
VERTEX
  8
Top_Silk
  10
0.3325
  20
0.4062
  42
1
  0
VERTEX
  8
Top_Silk
  10
0.3285
  20
0.4062
  42
1
  0
SEQEND
  0
POLYLINE
  8
Top_Silk
  6
CONTINUOUS
  66
1
  70
0
  40
0.004
  41
0.004
  0
VERTEX
  8
Top_Silk
  10
0.3521
  20
0.4062
  42
1
  0
VERTEX
  8
Top_Silk
  10
0.3561
  20
0.4062
  42
1
  0
VERTEX
  8
Top_Silk
  10
0.3521
  20
0.4062
  42
1
  0
SEQEND
  0
POLYLINE
  8
Top_Silk
  6
CONTINUOUS
  66
1
  70
0
  40
0.008
  41
0.008
  0
VERTEX
  8
Top_Silk
  10
0.3541
  20
0.4062
  42
0
  0
VERTEX
  8
Top_Silk
  10
0.3541
  20
0.3314
  42
0
  0
SEQEND
  0
POLYLINE
  8
Top_Silk
  6
CONTINUOUS
  66
1
  70
0
  40
0.004
  41
0.004
  0
VERTEX
  8
Top_Silk
  10
0.3521
  20
0.4062
  42
1
  0
VERTEX
  8
Top_Silk
  10
0.3561
  20
0.4062
  42
1
  0
VERTEX
  8
Top_Silk
  10
0.3521
  20
0.4062
  42
1
  0
SEQEND
  0
POLYLINE
  8
Top_Silk
  6
CONTINUOUS
  66
1
  70
0
  40
0.004
  41
0.004
  0
VERTEX
  8
Top_Silk
  10
0.3521
  20
0.3314
  42
1
  0
VERTEX
  8
Top_Silk
  10
0.3561
  20
0.3314
  42
1
  0
VERTEX
  8
Top_Silk
  10
0.3521
  20
0.3314
  42
1
  0
SEQEND
  0
POLYLINE
  8
Top_Silk
  6
CONTINUOUS
  66
1
  70
0
  40
0.008
  41
0.008
  0
VERTEX
  8
Top_Silk
  10
0.3541
  20
0.3314
  42
0
  0
VERTEX
  8
Top_Silk
  10
0.3305
  20
0.3314
  42
0
  0
SEQEND
  0
POLYLINE
  8
Top_Silk
  6
CONTINUOUS
  66
1
  70
0
  40
0.004
  41
0.004
  0
VERTEX
  8
Top_Silk
  10
0.3521
  20
0.3314
  42
1
  0
VERTEX
  8
Top_Silk
  10
0.3561
  20
0.3314
  42
1
  0
VERTEX
  8
Top_Silk
  10
0.3521
  20
0.3314
  42
1
  0
SEQEND
  0
POLYLINE
  8
Top_Silk
  6
CONTINUOUS
  66
1
  70
0
  40
0.004
  41
0.004
  0
VERTEX
  8
Top_Silk
  10
0.3285
  20
0.3314
  42
1
  0
VERTEX
  8
Top_Silk
  10
0.3325
  20
0.3314
  42
1
  0
VERTEX
  8
Top_Silk
  10
0.3285
  20
0.3314
  42
1
  0
SEQEND
  0
POLYLINE
  8
Top_Silk
  6
CONTINUOUS
  66
1
  70
0
  40
0.0046
  41
0.0046
  0
VERTEX
  8
Top_Silk
  10
0.1529
  20
0.4093
  42
0
  0
VERTEX
  8
Top_Silk
  10
0.15
  20
0.4079
  42
0
  0
VERTEX
  8
Top_Silk
  10
0.1471
  20
0.405
  42
0
  0
VERTEX
  8
Top_Silk
  10
0.1457
  20
0.4021
  42
0
  0
VERTEX
  8
Top_Silk
  10
0.1457
  20
0.3964
  42
0
  0
VERTEX
  8
Top_Silk
  10
0.1471
  20
0.3935
  42
0
  0
VERTEX
  8
Top_Silk
  10
0.15
  20
0.3906
  42
0
  0
VERTEX
  8
Top_Silk
  10
0.1529
  20
0.3892
  42
0
  0
VERTEX
  8
Top_Silk
  10
0.1572
  20
0.3878
  42
0
  0
VERTEX
  8
Top_Silk
  10
0.1644
  20
0.3878
  42
0
  0
VERTEX
  8
Top_Silk
  10
0.1687
  20
0.3892
  42
0
  0
VERTEX
  8
Top_Silk
  10
0.1715
  20
0.3906
  42
0
  0
VERTEX
  8
Top_Silk
  10
0.1744
  20
0.3935
  42
0
  0
VERTEX
  8
Top_Silk
  10
0.1759
  20
0.3964
  42
0
  0
VERTEX
  8
Top_Silk
  10
0.1759
  20
0.4021
  42
0
  0
VERTEX
  8
Top_Silk
  10
0.1744
  20
0.405
  42
0
  0
VERTEX
  8
Top_Silk
  10
0.1715
  20
0.4079
  42
0
  0
VERTEX
  8
Top_Silk
  10
0.1687
  20
0.4093
  42
0
  0
SEQEND
  0
POLYLINE
  8
Top_Silk
  6
CONTINUOUS
  66
1
  70
0
  40
0.0023
  41
0.0023
  0
VERTEX
  8
Top_Silk
  10
0.1517
  20
0.4093
  42
1
  0
VERTEX
  8
Top_Silk
  10
0.154
  20
0.4093
  42
1
  0
VERTEX
  8
Top_Silk
  10
0.1517
  20
0.4093
  42
1
  0
SEQEND
  0
POLYLINE
  8
Top_Silk
  6
CONTINUOUS
  66
1
  70
0
  40
0.0023
  41
0.0023
  0
VERTEX
  8
Top_Silk
  10
0.1675
  20
0.4093
  42
1
  0
VERTEX
  8
Top_Silk
  10
0.1698
  20
0.4093
  42
1
  0
VERTEX
  8
Top_Silk
  10
0.1675
  20
0.4093
  42
1
  0
SEQEND
  0
POLYLINE
  8
Top_Silk
  6
CONTINUOUS
  66
1
  70
0
  40
0.0046
  41
0.0046
  0
VERTEX
  8
Top_Silk
  10
0.1759
  20
0.4329
  42
0
  0
VERTEX
  8
Top_Silk
  10
0.1457
  20
0.4329
  42
0
  0
VERTEX
  8
Top_Silk
  10
0.1658
  20
0.4185
  42
0
  0
VERTEX
  8
Top_Silk
  10
0.1658
  20
0.4401
  42
0
  0
SEQEND
  0
POLYLINE
  8
Top_Silk
  6
CONTINUOUS
  66
1
  70
0
  40
0.0023
  41
0.0023
  0
VERTEX
  8
Top_Silk
  10
0.1747
  20
0.4329
  42
1
  0
VERTEX
  8
Top_Silk
  10
0.177
  20
0.4329
  42
1
  0
VERTEX
  8
Top_Silk
  10
0.1747
  20
0.4329
  42
1
  0
SEQEND
  0
POLYLINE
  8
Top_Silk
  6
CONTINUOUS
  66
1
  70
0
  40
0.0023
  41
0.0023
  0
VERTEX
  8
Top_Silk
  10
0.1646
  20
0.4401
  42
1
  0
VERTEX
  8
Top_Silk
  10
0.167
  20
0.4401
  42
1
  0
VERTEX
  8
Top_Silk
  10
0.1646
  20
0.4401
  42
1
  0
SEQEND
  0
POLYLINE
  8
Top_Silk
  6
CONTINUOUS
  66
1
  70
0
  40
0.0046
  41
0.0046
  0
VERTEX
  8
Top_Silk
  10
0.1808
  20
0.4493
  42
0
  0
VERTEX
  8
Top_Silk
  10
0.1808
  20
0.4766
  42
0
  0
SEQEND
  0
POLYLINE
  8
Top_Silk
  6
CONTINUOUS
  66
1
  70
0
  40
0.0023
  41
0.0023
  0
VERTEX
  8
Top_Silk
  10
0.1797
  20
0.4493
  42
1
  0
VERTEX
  8
Top_Silk
  10
0.182
  20
0.4493
  42
1
  0
VERTEX
  8
Top_Silk
  10
0.1797
  20
0.4493
  42
1
  0
SEQEND
  0
POLYLINE
  8
Top_Silk
  6
CONTINUOUS
  66
1
  70
0
  40
0.0023
  41
0.0023
  0
VERTEX
  8
Top_Silk
  10
0.1797
  20
0.4766
  42
1
  0
VERTEX
  8
Top_Silk
  10
0.182
  20
0.4766
  42
1
  0
VERTEX
  8
Top_Silk
  10
0.1797
  20
0.4766
  42
1
  0
SEQEND
  0
POLYLINE
  8
Top_Silk
  6
CONTINUOUS
  66
1
  70
0
  40
0.0046
  41
0.0046
  0
VERTEX
  8
Top_Silk
  10
0.1457
  20
0.4887
  42
0
  0
VERTEX
  8
Top_Silk
  10
0.1457
  20
0.5045
  42
0
  0
VERTEX
  8
Top_Silk
  10
0.1572
  20
0.4959
  42
0
  0
VERTEX
  8
Top_Silk
  10
0.1572
  20
0.5002
  42
0
  0
VERTEX
  8
Top_Silk
  10
0.1586
  20
0.5031
  42
0
  0
VERTEX
  8
Top_Silk
  10
0.1601
  20
0.5045
  42
0
  0
VERTEX
  8
Top_Silk
  10
0.1644
  20
0.5059
  42
0
  0
VERTEX
  8
Top_Silk
  10
0.1672
  20
0.5059
  42
0
  0
VERTEX
  8
Top_Silk
  10
0.1715
  20
0.5045
  42
0
  0
VERTEX
  8
Top_Silk
  10
0.1744
  20
0.5016
  42
0
  0
VERTEX
  8
Top_Silk
  10
0.1759
  20
0.4973
  42
0
  0
VERTEX
  8
Top_Silk
  10
0.1759
  20
0.493
  42
0
  0
VERTEX
  8
Top_Silk
  10
0.1744
  20
0.4887
  42
0
  0
VERTEX
  8
Top_Silk
  10
0.173
  20
0.4873
  42
0
  0
VERTEX
  8
Top_Silk
  10
0.1701
  20
0.4858
  42
0
  0
SEQEND
  0
POLYLINE
  8
Top_Silk
  6
CONTINUOUS
  66
1
  70
0
  40
0.0023
  41
0.0023
  0
VERTEX
  8
Top_Silk
  10
0.1446
  20
0.4887
  42
1
  0
VERTEX
  8
Top_Silk
  10
0.1469
  20
0.4887
  42
1
  0
VERTEX
  8
Top_Silk
  10
0.1446
  20
0.4887
  42
1
  0
SEQEND
  0
POLYLINE
  8
Top_Silk
  6
CONTINUOUS
  66
1
  70
0
  40
0.0023
  41
0.0023
  0
VERTEX
  8
Top_Silk
  10
0.169
  20
0.4858
  42
1
  0
VERTEX
  8
Top_Silk
  10
0.1713
  20
0.4858
  42
1
  0
VERTEX
  8
Top_Silk
  10
0.169
  20
0.4858
  42
1
  0
SEQEND
  0
POLYLINE
  8
Top_Silk
  6
CONTINUOUS
  66
1
  70
0
  40
0.0046
  41
0.0046
  0
VERTEX
  8
Top_Silk
  10
0.5931
  20
0.3484
  42
0
  0
VERTEX
  8
Top_Silk
  10
0.5931
  20
0.3613
  42
0
  0
VERTEX
  8
Top_Silk
  10
0.5917
  20
0.3656
  42
0
  0
VERTEX
  8
Top_Silk
  10
0.5903
  20
0.3671
  42
0
  0
VERTEX
  8
Top_Silk
  10
0.5874
  20
0.3685
  42
0
  0
VERTEX
  8
Top_Silk
  10
0.5845
  20
0.3685
  42
0
  0
VERTEX
  8
Top_Silk
  10
0.5817
  20
0.3671
  42
0
  0
VERTEX
  8
Top_Silk
  10
0.5802
  20
0.3656
  42
0
  0
VERTEX
  8
Top_Silk
  10
0.5788
  20
0.3613
  42
0
  0
VERTEX
  8
Top_Silk
  10
0.5788
  20
0.3484
  42
0
  0
VERTEX
  8
Top_Silk
  10
0.6089
  20
0.3484
  42
0
  0
SEQEND
  0
POLYLINE
  8
Top_Silk
  6
CONTINUOUS
  66
1
  70
0
  40
0.0023
  41
0.0023
  0
VERTEX
  8
Top_Silk
  10
0.592
  20
0.3484
  42
1
  0
VERTEX
  8
Top_Silk
  10
0.5943
  20
0.3484
  42
1
  0
VERTEX
  8
Top_Silk
  10
0.592
  20
0.3484
  42
1
  0
SEQEND
  0
POLYLINE
  8
Top_Silk
  6
CONTINUOUS
  66
1
  70
0
  40
0.0023
  41
0.0023
  0
VERTEX
  8
Top_Silk
  10
0.6078
  20
0.3484
  42
1
  0
VERTEX
  8
Top_Silk
  10
0.6101
  20
0.3484
  42
1
  0
VERTEX
  8
Top_Silk
  10
0.6078
  20
0.3484
  42
1
  0
SEQEND
  0
POLYLINE
  8
Top_Silk
  6
CONTINUOUS
  66
1
  70
0
  40
0.0046
  41
0.0046
  0
VERTEX
  8
Top_Silk
  10
0.5931
  20
0.3584
  42
0
  0
VERTEX
  8
Top_Silk
  10
0.6089
  20
0.3685
  42
0
  0
SEQEND
  0
POLYLINE
  8
Top_Silk
  6
CONTINUOUS
  66
1
  70
0
  40
0.0023
  41
0.0023
  0
VERTEX
  8
Top_Silk
  10
0.592
  20
0.3584
  42
1
  0
VERTEX
  8
Top_Silk
  10
0.5943
  20
0.3584
  42
1
  0
VERTEX
  8
Top_Silk
  10
0.592
  20
0.3584
  42
1
  0
SEQEND
  0
POLYLINE
  8
Top_Silk
  6
CONTINUOUS
  66
1
  70
0
  40
0.0023
  41
0.0023
  0
VERTEX
  8
Top_Silk
  10
0.6078
  20
0.3685
  42
1
  0
VERTEX
  8
Top_Silk
  10
0.6101
  20
0.3685
  42
1
  0
VERTEX
  8
Top_Silk
  10
0.6078
  20
0.3685
  42
1
  0
SEQEND
  0
POLYLINE
  8
Top_Silk
  6
CONTINUOUS
  66
1
  70
0
  40
0.0046
  41
0.0046
  0
VERTEX
  8
Top_Silk
  10
0.5846
  20
0.3777
  42
0
  0
VERTEX
  8
Top_Silk
  10
0.5831
  20
0.3806
  42
0
  0
VERTEX
  8
Top_Silk
  10
0.5788
  20
0.3849
  42
0
  0
VERTEX
  8
Top_Silk
  10
0.6089
  20
0.3849
  42
0
  0
SEQEND
  0
POLYLINE
  8
Top_Silk
  6
CONTINUOUS
  66
1
  70
0
  40
0.0023
  41
0.0023
  0
VERTEX
  8
Top_Silk
  10
0.5834
  20
0.3777
  42
1
  0
VERTEX
  8
Top_Silk
  10
0.5857
  20
0.3777
  42
1
  0
VERTEX
  8
Top_Silk
  10
0.5834
  20
0.3777
  42
1
  0
SEQEND
  0
POLYLINE
  8
Top_Silk
  6
CONTINUOUS
  66
1
  70
0
  40
0.0023
  41
0.0023
  0
VERTEX
  8
Top_Silk
  10
0.6078
  20
0.3849
  42
1
  0
VERTEX
  8
Top_Silk
  10
0.6101
  20
0.3849
  42
1
  0
VERTEX
  8
Top_Silk
  10
0.6078
  20
0.3849
  42
1
  0
SEQEND
  0
POLYLINE
  8
Top_Silk
  6
CONTINUOUS
  66
1
  70
0
  40
0.0046
  41
0.0046
  0
VERTEX
  8
Top_Silk
  10
0.6139
  20
0.3942
  42
0
  0
VERTEX
  8
Top_Silk
  10
0.6139
  20
0.4215
  42
0
  0
SEQEND
  0
POLYLINE
  8
Top_Silk
  6
CONTINUOUS
  66
1
  70
0
  40
0.0023
  41
0.0023
  0
VERTEX
  8
Top_Silk
  10
0.6127
  20
0.3942
  42
1
  0
VERTEX
  8
Top_Silk
  10
0.6151
  20
0.3942
  42
1
  0
VERTEX
  8
Top_Silk
  10
0.6127
  20
0.3942
  42
1
  0
SEQEND
  0
POLYLINE
  8
Top_Silk
  6
CONTINUOUS
  66
1
  70
0
  40
0.0023
  41
0.0023
  0
VERTEX
  8
Top_Silk
  10
0.6127
  20
0.4215
  42
1
  0
VERTEX
  8
Top_Silk
  10
0.6151
  20
0.4215
  42
1
  0
VERTEX
  8
Top_Silk
  10
0.6127
  20
0.4215
  42
1
  0
SEQEND
  0
POLYLINE
  8
Top_Silk
  6
CONTINUOUS
  66
1
  70
0
  40
0.0046
  41
0.0046
  0
VERTEX
  8
Top_Silk
  10
0.5788
  20
0.4336
  42
0
  0
VERTEX
  8
Top_Silk
  10
0.5788
  20
0.4494
  42
0
  0
VERTEX
  8
Top_Silk
  10
0.5903
  20
0.4408
  42
0
  0
VERTEX
  8
Top_Silk
  10
0.5903
  20
0.4451
  42
0
  0
VERTEX
  8
Top_Silk
  10
0.5917
  20
0.4479
  42
0
  0
VERTEX
  8
Top_Silk
  10
0.5931
  20
0.4494
  42
0
  0
VERTEX
  8
Top_Silk
  10
0.5975
  20
0.4508
  42
0
  0
VERTEX
  8
Top_Silk
  10
0.6003
  20
0.4508
  42
0
  0
VERTEX
  8
Top_Silk
  10
0.6046
  20
0.4494
  42
0
  0
VERTEX
  8
Top_Silk
  10
0.6075
  20
0.4465
  42
0
  0
VERTEX
  8
Top_Silk
  10
0.6089
  20
0.4422
  42
0
  0
VERTEX
  8
Top_Silk
  10
0.6089
  20
0.4379
  42
0
  0
VERTEX
  8
Top_Silk
  10
0.6075
  20
0.4336
  42
0
  0
VERTEX
  8
Top_Silk
  10
0.606
  20
0.4322
  42
0
  0
VERTEX
  8
Top_Silk
  10
0.6032
  20
0.4307
  42
0
  0
SEQEND
  0
POLYLINE
  8
Top_Silk
  6
CONTINUOUS
  66
1
  70
0
  40
0.0023
  41
0.0023
  0
VERTEX
  8
Top_Silk
  10
0.5777
  20
0.4336
  42
1
  0
VERTEX
  8
Top_Silk
  10
0.58
  20
0.4336
  42
1
  0
VERTEX
  8
Top_Silk
  10
0.5777
  20
0.4336
  42
1
  0
SEQEND
  0
POLYLINE
  8
Top_Silk
  6
CONTINUOUS
  66
1
  70
0
  40
0.0023
  41
0.0023
  0
VERTEX
  8
Top_Silk
  10
0.602
  20
0.4307
  42
1
  0
VERTEX
  8
Top_Silk
  10
0.6043
  20
0.4307
  42
1
  0
VERTEX
  8
Top_Silk
  10
0.602
  20
0.4307
  42
1
  0
SEQEND
  0
POLYLINE
  8
Top_Silk
  6
CONTINUOUS
  66
1
  70
0
  40
0.0046
  41
0.0046
  0
VERTEX
  8
Top_Silk
  10
0.344
  20
0.1945
  42
0
  0
VERTEX
  8
Top_Silk
  10
0.3412
  20
0.1974
  42
0
  0
VERTEX
  8
Top_Silk
  10
0.3369
  20
0.1988
  42
0
  0
VERTEX
  8
Top_Silk
  10
0.3311
  20
0.1988
  42
0
  0
VERTEX
  8
Top_Silk
  10
0.3268
  20
0.1974
  42
0
  0
VERTEX
  8
Top_Silk
  10
0.3239
  20
0.1945
  42
0
  0
VERTEX
  8
Top_Silk
  10
0.3239
  20
0.1916
  42
0
  0
VERTEX
  8
Top_Silk
  10
0.3254
  20
0.1888
  42
0
  0
VERTEX
  8
Top_Silk
  10
0.3268
  20
0.1873
  42
0
  0
VERTEX
  8
Top_Silk
  10
0.3297
  20
0.1859
  42
0
  0
VERTEX
  8
Top_Silk
  10
0.3383
  20
0.183
  42
0
  0
VERTEX
  8
Top_Silk
  10
0.3412
  20
0.1816
  42
0
  0
VERTEX
  8
Top_Silk
  10
0.3426
  20
0.1801
  42
0
  0
VERTEX
  8
Top_Silk
  10
0.344
  20
0.1773
  42
0
  0
VERTEX
  8
Top_Silk
  10
0.344
  20
0.173
  42
0
  0
VERTEX
  8
Top_Silk
  10
0.3412
  20
0.1701
  42
0
  0
VERTEX
  8
Top_Silk
  10
0.3369
  20
0.1687
  42
0
  0
VERTEX
  8
Top_Silk
  10
0.3311
  20
0.1687
  42
0
  0
VERTEX
  8
Top_Silk
  10
0.3268
  20
0.1701
  42
0
  0
VERTEX
  8
Top_Silk
  10
0.3239
  20
0.173
  42
0
  0
SEQEND
  0
POLYLINE
  8
Top_Silk
  6
CONTINUOUS
  66
1
  70
0
  40
0.0023
  41
0.0023
  0
VERTEX
  8
Top_Silk
  10
0.3429
  20
0.1945
  42
1
  0
VERTEX
  8
Top_Silk
  10
0.3452
  20
0.1945
  42
1
  0
VERTEX
  8
Top_Silk
  10
0.3429
  20
0.1945
  42
1
  0
SEQEND
  0
POLYLINE
  8
Top_Silk
  6
CONTINUOUS
  66
1
  70
0
  40
0.0023
  41
0.0023
  0
VERTEX
  8
Top_Silk
  10
0.3228
  20
0.173
  42
1
  0
VERTEX
  8
Top_Silk
  10
0.3251
  20
0.173
  42
1
  0
VERTEX
  8
Top_Silk
  10
0.3228
  20
0.173
  42
1
  0
SEQEND
  0
POLYLINE
  8
Top_Silk
  6
CONTINUOUS
  66
1
  70
0
  40
0.0046
  41
0.0046
  0
VERTEX
  8
Top_Silk
  10
0.3676
  20
0.1988
  42
0
  0
VERTEX
  8
Top_Silk
  10
0.3676
  20
0.1759
  42
0
  0
VERTEX
  8
Top_Silk
  10
0.3662
  20
0.1715
  42
0
  0
VERTEX
  8
Top_Silk
  10
0.3648
  20
0.1701
  42
0
  0
VERTEX
  8
Top_Silk
  10
0.3619
  20
0.1687
  42
0
  0
VERTEX
  8
Top_Silk
  10
0.359
  20
0.1687
  42
0
  0
VERTEX
  8
Top_Silk
  10
0.3562
  20
0.1701
  42
0
  0
VERTEX
  8
Top_Silk
  10
0.3547
  20
0.1715
  42
0
  0
VERTEX
  8
Top_Silk
  10
0.3533
  20
0.1759
  42
0
  0
VERTEX
  8
Top_Silk
  10
0.3533
  20
0.1787
  42
0
  0
SEQEND
  0
POLYLINE
  8
Top_Silk
  6
CONTINUOUS
  66
1
  70
0
  40
0.0023
  41
0.0023
  0
VERTEX
  8
Top_Silk
  10
0.3665
  20
0.1988
  42
1
  0
VERTEX
  8
Top_Silk
  10
0.3688
  20
0.1988
  42
1
  0
VERTEX
  8
Top_Silk
  10
0.3665
  20
0.1988
  42
1
  0
SEQEND
  0
POLYLINE
  8
Top_Silk
  6
CONTINUOUS
  66
1
  70
0
  40
0.0023
  41
0.0023
  0
VERTEX
  8
Top_Silk
  10
0.3521
  20
0.1787
  42
1
  0
VERTEX
  8
Top_Silk
  10
0.3544
  20
0.1787
  42
1
  0
VERTEX
  8
Top_Silk
  10
0.3521
  20
0.1787
  42
1
  0
SEQEND
  0
POLYLINE
  8
Top_Silk
  6
CONTINUOUS
  66
1
  70
0
  40
0.0046
  41
0.0046
  0
VERTEX
  8
Top_Silk
  10
0.3769
  20
0.193
  42
0
  0
VERTEX
  8
Top_Silk
  10
0.3798
  20
0.1945
  42
0
  0
VERTEX
  8
Top_Silk
  10
0.3841
  20
0.1988
  42
0
  0
VERTEX
  8
Top_Silk
  10
0.3841
  20
0.1687
  42
0
  0
SEQEND
  0
POLYLINE
  8
Top_Silk
  6
CONTINUOUS
  66
1
  70
0
  40
0.0023
  41
0.0023
  0
VERTEX
  8
Top_Silk
  10
0.3758
  20
0.193
  42
1
  0
VERTEX
  8
Top_Silk
  10
0.3781
  20
0.193
  42
1
  0
VERTEX
  8
Top_Silk
  10
0.3758
  20
0.193
  42
1
  0
SEQEND
  0
POLYLINE
  8
Top_Silk
  6
CONTINUOUS
  66
1
  70
0
  40
0.0023
  41
0.0023
  0
VERTEX
  8
Top_Silk
  10
0.3829
  20
0.1687
  42
1
  0
VERTEX
  8
Top_Silk
  10
0.3853
  20
0.1687
  42
1
  0
VERTEX
  8
Top_Silk
  10
0.3829
  20
0.1687
  42
1
  0
SEQEND
  0
POLYLINE
  8
Top_Silk
  6
CONTINUOUS
  66
1
  70
0
  40
0.0046
  41
0.0046
  0
VERTEX
  8
Top_Silk
  10
0.3559
  20
0.5578
  42
0
  0
VERTEX
  8
Top_Silk
  10
0.3559
  20
0.5363
  42
0
  0
VERTEX
  8
Top_Silk
  10
0.3573
  20
0.5319
  42
0
  0
VERTEX
  8
Top_Silk
  10
0.3602
  20
0.5291
  42
0
  0
VERTEX
  8
Top_Silk
  10
0.3645
  20
0.5276
  42
0
  0
VERTEX
  8
Top_Silk
  10
0.3674
  20
0.5276
  42
0
  0
VERTEX
  8
Top_Silk
  10
0.3717
  20
0.5291
  42
0
  0
VERTEX
  8
Top_Silk
  10
0.3746
  20
0.5319
  42
0
  0
VERTEX
  8
Top_Silk
  10
0.376
  20
0.5363
  42
0
  0
VERTEX
  8
Top_Silk
  10
0.376
  20
0.5578
  42
0
  0
SEQEND
  0
POLYLINE
  8
Top_Silk
  6
CONTINUOUS
  66
1
  70
0
  40
0.0023
  41
0.0023
  0
VERTEX
  8
Top_Silk
  10
0.3548
  20
0.5578
  42
1
  0
VERTEX
  8
Top_Silk
  10
0.3571
  20
0.5578
  42
1
  0
VERTEX
  8
Top_Silk
  10
0.3548
  20
0.5578
  42
1
  0
SEQEND
  0
POLYLINE
  8
Top_Silk
  6
CONTINUOUS
  66
1
  70
0
  40
0.0023
  41
0.0023
  0
VERTEX
  8
Top_Silk
  10
0.3749
  20
0.5578
  42
1
  0
VERTEX
  8
Top_Silk
  10
0.3772
  20
0.5578
  42
1
  0
VERTEX
  8
Top_Silk
  10
0.3749
  20
0.5578
  42
1
  0
SEQEND
  0
POLYLINE
  8
Top_Silk
  6
CONTINUOUS
  66
1
  70
0
  40
0.0046
  41
0.0046
  0
VERTEX
  8
Top_Silk
  10
0.3867
  20
0.5506
  42
0
  0
VERTEX
  8
Top_Silk
  10
0.3867
  20
0.552
  42
0
  0
VERTEX
  8
Top_Silk
  10
0.3882
  20
0.5549
  42
0
  0
VERTEX
  8
Top_Silk
  10
0.3896
  20
0.5563
  42
0
  0
VERTEX
  8
Top_Silk
  10
0.3925
  20
0.5577
  42
0
  0
VERTEX
  8
Top_Silk
  10
0.3982
  20
0.5577
  42
0
  0
VERTEX
  8
Top_Silk
  10
0.4011
  20
0.5563
  42
0
  0
VERTEX
  8
Top_Silk
  10
0.4025
  20
0.5549
  42
0
  0
VERTEX
  8
Top_Silk
  10
0.4039
  20
0.552
  42
0
  0
VERTEX
  8
Top_Silk
  10
0.4039
  20
0.5492
  42
0
  0
VERTEX
  8
Top_Silk
  10
0.4025
  20
0.5463
  42
0
  0
VERTEX
  8
Top_Silk
  10
0.3996
  20
0.542
  42
0
  0
VERTEX
  8
Top_Silk
  10
0.3853
  20
0.5276
  42
0
  0
VERTEX
  8
Top_Silk
  10
0.4054
  20
0.5276
  42
0
  0
SEQEND
  0
POLYLINE
  8
Top_Silk
  6
CONTINUOUS
  66
1
  70
0
  40
0.0023
  41
0.0023
  0
VERTEX
  8
Top_Silk
  10
0.3856
  20
0.5506
  42
1
  0
VERTEX
  8
Top_Silk
  10
0.3879
  20
0.5506
  42
1
  0
VERTEX
  8
Top_Silk
  10
0.3856
  20
0.5506
  42
1
  0
SEQEND
  0
POLYLINE
  8
Top_Silk
  6
CONTINUOUS
  66
1
  70
0
  40
0.0023
  41
0.0023
  0
VERTEX
  8
Top_Silk
  10
0.4042
  20
0.5276
  42
1
  0
VERTEX
  8
Top_Silk
  10
0.4065
  20
0.5276
  42
1
  0
VERTEX
  8
Top_Silk
  10
0.4042
  20
0.5276
  42
1
  0
SEQEND
  0
POLYLINE
  8
Top_Silk
  6
CONTINUOUS
  66
1
  70
0
  40
0.0046
  41
0.0046
  0
VERTEX
  8
Top_Silk
  10
0.4146
  20
0.5227
  42
0
  0
VERTEX
  8
Top_Silk
  10
0.4419
  20
0.5227
  42
0
  0
SEQEND
  0
POLYLINE
  8
Top_Silk
  6
CONTINUOUS
  66
1
  70
0
  40
0.0023
  41
0.0023
  0
VERTEX
  8
Top_Silk
  10
0.4135
  20
0.5227
  42
1
  0
VERTEX
  8
Top_Silk
  10
0.4158
  20
0.5227
  42
1
  0
VERTEX
  8
Top_Silk
  10
0.4135
  20
0.5227
  42
1
  0
SEQEND
  0
POLYLINE
  8
Top_Silk
  6
CONTINUOUS
  66
1
  70
0
  40
0.0023
  41
0.0023
  0
VERTEX
  8
Top_Silk
  10
0.4407
  20
0.5227
  42
1
  0
VERTEX
  8
Top_Silk
  10
0.443
  20
0.5227
  42
1
  0
VERTEX
  8
Top_Silk
  10
0.4407
  20
0.5227
  42
1
  0
SEQEND
  0
POLYLINE
  8
Top_Silk
  6
CONTINUOUS
  66
1
  70
0
  40
0.0046
  41
0.0046
  0
VERTEX
  8
Top_Silk
  10
0.454
  20
0.5577
  42
0
  0
VERTEX
  8
Top_Silk
  10
0.4698
  20
0.5577
  42
0
  0
VERTEX
  8
Top_Silk
  10
0.4612
  20
0.5463
  42
0
  0
VERTEX
  8
Top_Silk
  10
0.4655
  20
0.5463
  42
0
  0
VERTEX
  8
Top_Silk
  10
0.4684
  20
0.5448
  42
0
  0
VERTEX
  8
Top_Silk
  10
0.4698
  20
0.5434
  42
0
  0
VERTEX
  8
Top_Silk
  10
0.4713
  20
0.5391
  42
0
  0
VERTEX
  8
Top_Silk
  10
0.4713
  20
0.5363
  42
0
  0
VERTEX
  8
Top_Silk
  10
0.4698
  20
0.5319
  42
0
  0
VERTEX
  8
Top_Silk
  10
0.4669
  20
0.5291
  42
0
  0
VERTEX
  8
Top_Silk
  10
0.4626
  20
0.5276
  42
0
  0
VERTEX
  8
Top_Silk
  10
0.4583
  20
0.5276
  42
0
  0
VERTEX
  8
Top_Silk
  10
0.454
  20
0.5291
  42
0
  0
VERTEX
  8
Top_Silk
  10
0.4526
  20
0.5305
  42
0
  0
VERTEX
  8
Top_Silk
  10
0.4512
  20
0.5334
  42
0
  0
SEQEND
  0
POLYLINE
  8
Top_Silk
  6
CONTINUOUS
  66
1
  70
0
  40
0.0023
  41
0.0023
  0
VERTEX
  8
Top_Silk
  10
0.4529
  20
0.5577
  42
1
  0
VERTEX
  8
Top_Silk
  10
0.4552
  20
0.5577
  42
1
  0
VERTEX
  8
Top_Silk
  10
0.4529
  20
0.5577
  42
1
  0
SEQEND
  0
POLYLINE
  8
Top_Silk
  6
CONTINUOUS
  66
1
  70
0
  40
0.0023
  41
0.0023
  0
VERTEX
  8
Top_Silk
  10
0.45
  20
0.5334
  42
1
  0
VERTEX
  8
Top_Silk
  10
0.4523
  20
0.5334
  42
1
  0
VERTEX
  8
Top_Silk
  10
0.45
  20
0.5334
  42
1
  0
SEQEND
  0
POLYLINE
  8
Top_Mask
  6
CONTINUOUS
  66
1
  70
0
  40
0.0
  41
0.0
  0
VERTEX
  8
Top_Mask
  10
0.2441
  20
0.4587
  42
0
  0
VERTEX
  8
Top_Mask
  10
0.2441
  20
0.502
  42
0
  0
VERTEX
  8
Top_Mask
  10
0.2047
  20
0.502
  42
0
  0
VERTEX
  8
Top_Mask
  10
0.2047
  20
0.4587
  42
0
  0
VERTEX
  8
Top_Mask
  10
0.2441
  20
0.4587
  42
0
  0
SEQEND
  0
POLYLINE
  8
Top_Mask
  6
CONTINUOUS
  66
1
  70
0
  40
0.0
  41
0.0
  0
VERTEX
  8
Top_Mask
  10
0.2441
  20
0.3917
  42
0
  0
VERTEX
  8
Top_Mask
  10
0.2441
  20
0.435
  42
0
  0
VERTEX
  8
Top_Mask
  10
0.2047
  20
0.435
  42
0
  0
VERTEX
  8
Top_Mask
  10
0.2047
  20
0.3917
  42
0
  0
VERTEX
  8
Top_Mask
  10
0.2441
  20
0.3917
  42
0
  0
SEQEND
  0
POLYLINE
  8
Top_Mask
  6
CONTINUOUS
  66
1
  70
0
  40
0.063
  41
0.063
  0
VERTEX
  8
Top_Mask
  10
0.622
  20
0.5512
  42
1
  0
VERTEX
  8
Top_Mask
  10
0.5591
  20
0.5512
  42
1
  0
VERTEX
  8
Top_Mask
  10
0.622
  20
0.5512
  42
1
  0
SEQEND
  0
POLYLINE
  8
Top_Mask
  6
CONTINUOUS
  66
1
  70
0
  40
0.063
  41
0.063
  0
VERTEX
  8
Top_Mask
  10
0.5591
  20
0.5512
  42
1
  0
VERTEX
  8
Top_Mask
  10
0.622
  20
0.5512
  42
1
  0
VERTEX
  8
Top_Mask
  10
0.5591
  20
0.5512
  42
1
  0
SEQEND
  0
POLYLINE
  8
Top_Mask
  6
CONTINUOUS
  66
1
  70
0
  40
0.063
  41
0.063
  0
VERTEX
  8
Top_Mask
  10
0.622
  20
0.1181
  42
1
  0
VERTEX
  8
Top_Mask
  10
0.5591
  20
0.1181
  42
1
  0
VERTEX
  8
Top_Mask
  10
0.622
  20
0.1181
  42
1
  0
SEQEND
  0
POLYLINE
  8
Top_Mask
  6
CONTINUOUS
  66
1
  70
0
  40
0.063
  41
0.063
  0
VERTEX
  8
Top_Mask
  10
0.5591
  20
0.1181
  42
1
  0
VERTEX
  8
Top_Mask
  10
0.622
  20
0.1181
  42
1
  0
VERTEX
  8
Top_Mask
  10
0.5591
  20
0.1181
  42
1
  0
SEQEND
  0
SOLID
  8
Top_Mask
  10
0.0177
  20
0.5217
  11
0.0925
  21
0.5217
  12
0.0177
  22
0.4469
  13
0.0925
  23
0.4469
  0
POLYLINE
  8
Top_Mask
  6
CONTINUOUS
  66
1
  70
0
  40
0.0374
  41
0.0374
  0
VERTEX
  8
Top_Mask
  10
0.0738
  20
0.3843
  42
1
  0
VERTEX
  8
Top_Mask
  10
0.0364
  20
0.3843
  42
1
  0
VERTEX
  8
Top_Mask
  10
0.0738
  20
0.3843
  42
1
  0
SEQEND
  0
POLYLINE
  8
Top_Mask
  6
CONTINUOUS
  66
1
  70
0
  40
0.0374
  41
0.0374
  0
VERTEX
  8
Top_Mask
  10
0.0364
  20
0.3843
  42
1
  0
VERTEX
  8
Top_Mask
  10
0.0738
  20
0.3843
  42
1
  0
VERTEX
  8
Top_Mask
  10
0.0364
  20
0.3843
  42
1
  0
SEQEND
  0
POLYLINE
  8
Top_Mask
  6
CONTINUOUS
  66
1
  70
0
  40
0.0374
  41
0.0374
  0
VERTEX
  8
Top_Mask
  10
0.0738
  20
0.2843
  42
1
  0
VERTEX
  8
Top_Mask
  10
0.0364
  20
0.2843
  42
1
  0
VERTEX
  8
Top_Mask
  10
0.0738
  20
0.2843
  42
1
  0
SEQEND
  0
POLYLINE
  8
Top_Mask
  6
CONTINUOUS
  66
1
  70
0
  40
0.0374
  41
0.0374
  0
VERTEX
  8
Top_Mask
  10
0.0364
  20
0.2843
  42
1
  0
VERTEX
  8
Top_Mask
  10
0.0738
  20
0.2843
  42
1
  0
VERTEX
  8
Top_Mask
  10
0.0364
  20
0.2843
  42
1
  0
SEQEND
  0
POLYLINE
  8
Top_Mask
  6
CONTINUOUS
  66
1
  70
0
  40
0.0374
  41
0.0374
  0
VERTEX
  8
Top_Mask
  10
0.0738
  20
0.1843
  42
1
  0
VERTEX
  8
Top_Mask
  10
0.0364
  20
0.1843
  42
1
  0
VERTEX
  8
Top_Mask
  10
0.0738
  20
0.1843
  42
1
  0
SEQEND
  0
POLYLINE
  8
Top_Mask
  6
CONTINUOUS
  66
1
  70
0
  40
0.0374
  41
0.0374
  0
VERTEX
  8
Top_Mask
  10
0.0364
  20
0.1843
  42
1
  0
VERTEX
  8
Top_Mask
  10
0.0738
  20
0.1843
  42
1
  0
VERTEX
  8
Top_Mask
  10
0.0364
  20
0.1843
  42
1
  0
SEQEND
  0
POLYLINE
  8
Top_Mask
  6
CONTINUOUS
  66
1
  70
0
  40
0.0
  41
0.0
  0
VERTEX
  8
Top_Mask
  10
0.6417
  20
0.3878
  42
0
  0
VERTEX
  8
Top_Mask
  10
0.6417
  20
0.3445
  42
0
  0
VERTEX
  8
Top_Mask
  10
0.6811
  20
0.3445
  42
0
  0
VERTEX
  8
Top_Mask
  10
0.6811
  20
0.3878
  42
0
  0
VERTEX
  8
Top_Mask
  10
0.6417
  20
0.3878
  42
0
  0
SEQEND
  0
POLYLINE
  8
Top_Mask
  6
CONTINUOUS
  66
1
  70
0
  40
0.0
  41
0.0
  0
VERTEX
  8
Top_Mask
  10
0.6417
  20
0.4547
  42
0
  0
VERTEX
  8
Top_Mask
  10
0.6417
  20
0.4114
  42
0
  0
VERTEX
  8
Top_Mask
  10
0.6811
  20
0.4114
  42
0
  0
VERTEX
  8
Top_Mask
  10
0.6811
  20
0.4547
  42
0
  0
VERTEX
  8
Top_Mask
  10
0.6417
  20
0.4547
  42
0
  0
SEQEND
  0
POLYLINE
  8
Top_Mask
  6
CONTINUOUS
  66
1
  70
0
  40
0.0
  41
0.0
  0
VERTEX
  8
Top_Mask
  10
0.3615
  20
0.0852
  42
0
  0
VERTEX
  8
Top_Mask
  10
0.3865
  20
0.0852
  42
0
  0
VERTEX
  8
Top_Mask
  10
0.3865
  20
0.1352
  42
0
  0
VERTEX
  8
Top_Mask
  10
0.3615
  20
0.1352
  42
0
  0
VERTEX
  8
Top_Mask
  10
0.3615
  20
0.0852
  42
0
  0
SEQEND
  0
POLYLINE
  8
Top_Mask
  6
CONTINUOUS
  66
1
  70
0
  40
0.0
  41
0.0
  0
VERTEX
  8
Top_Mask
  10
0.3215
  20
0.0852
  42
0
  0
VERTEX
  8
Top_Mask
  10
0.3465
  20
0.0852
  42
0
  0
VERTEX
  8
Top_Mask
  10
0.3465
  20
0.1352
  42
0
  0
VERTEX
  8
Top_Mask
  10
0.3215
  20
0.1352
  42
0
  0
VERTEX
  8
Top_Mask
  10
0.3215
  20
0.0852
  42
0
  0
SEQEND
  0
POLYLINE
  8
Top_Mask
  6
CONTINUOUS
  66
1
  70
0
  40
0.0
  41
0.0
  0
VERTEX
  8
Top_Mask
  10
0.3543
  20
0.2283
  42
0
  0
VERTEX
  8
Top_Mask
  10
0.3543
  20
0.2992
  42
0
  0
VERTEX
  8
Top_Mask
  10
0.3228
  20
0.2992
  42
0
  0
VERTEX
  8
Top_Mask
  10
0.3228
  20
0.2283
  42
0
  0
VERTEX
  8
Top_Mask
  10
0.3543
  20
0.2283
  42
0
  0
SEQEND
  0
POLYLINE
  8
Top_Mask
  6
CONTINUOUS
  66
1
  70
0
  40
0.0
  41
0.0
  0
VERTEX
  8
Top_Mask
  10
0.4043
  20
0.2283
  42
0
  0
VERTEX
  8
Top_Mask
  10
0.4043
  20
0.2992
  42
0
  0
VERTEX
  8
Top_Mask
  10
0.3728
  20
0.2992
  42
0
  0
VERTEX
  8
Top_Mask
  10
0.3728
  20
0.2283
  42
0
  0
VERTEX
  8
Top_Mask
  10
0.4043
  20
0.2283
  42
0
  0
SEQEND
  0
POLYLINE
  8
Top_Mask
  6
CONTINUOUS
  66
1
  70
0
  40
0.0
  41
0.0
  0
VERTEX
  8
Top_Mask
  10
0.4543
  20
0.2283
  42
0
  0
VERTEX
  8
Top_Mask
  10
0.4543
  20
0.2992
  42
0
  0
VERTEX
  8
Top_Mask
  10
0.4228
  20
0.2992
  42
0
  0
VERTEX
  8
Top_Mask
  10
0.4228
  20
0.2283
  42
0
  0
VERTEX
  8
Top_Mask
  10
0.4543
  20
0.2283
  42
0
  0
SEQEND
  0
POLYLINE
  8
Top_Mask
  6
CONTINUOUS
  66
1
  70
0
  40
0.0
  41
0.0
  0
VERTEX
  8
Top_Mask
  10
0.5043
  20
0.2283
  42
0
  0
VERTEX
  8
Top_Mask
  10
0.5043
  20
0.2992
  42
0
  0
VERTEX
  8
Top_Mask
  10
0.4728
  20
0.2992
  42
0
  0
VERTEX
  8
Top_Mask
  10
0.4728
  20
0.2283
  42
0
  0
VERTEX
  8
Top_Mask
  10
0.5043
  20
0.2283
  42
0
  0
SEQEND
  0
POLYLINE
  8
Top_Mask
  6
CONTINUOUS
  66
1
  70
0
  40
0.0
  41
0.0
  0
VERTEX
  8
Top_Mask
  10
0.5043
  20
0.4383
  42
0
  0
VERTEX
  8
Top_Mask
  10
0.5043
  20
0.5092
  42
0
  0
VERTEX
  8
Top_Mask
  10
0.4728
  20
0.5092
  42
0
  0
VERTEX
  8
Top_Mask
  10
0.4728
  20
0.4383
  42
0
  0
VERTEX
  8
Top_Mask
  10
0.5043
  20
0.4383
  42
0
  0
SEQEND
  0
POLYLINE
  8
Top_Mask
  6
CONTINUOUS
  66
1
  70
0
  40
0.0
  41
0.0
  0
VERTEX
  8
Top_Mask
  10
0.4543
  20
0.4383
  42
0
  0
VERTEX
  8
Top_Mask
  10
0.4543
  20
0.5092
  42
0
  0
VERTEX
  8
Top_Mask
  10
0.4228
  20
0.5092
  42
0
  0
VERTEX
  8
Top_Mask
  10
0.4228
  20
0.4383
  42
0
  0
VERTEX
  8
Top_Mask
  10
0.4543
  20
0.4383
  42
0
  0
SEQEND
  0
POLYLINE
  8
Top_Mask
  6
CONTINUOUS
  66
1
  70
0
  40
0.0
  41
0.0
  0
VERTEX
  8
Top_Mask
  10
0.4043
  20
0.4383
  42
0
  0
VERTEX
  8
Top_Mask
  10
0.4043
  20
0.5092
  42
0
  0
VERTEX
  8
Top_Mask
  10
0.3728
  20
0.5092
  42
0
  0
VERTEX
  8
Top_Mask
  10
0.3728
  20
0.4383
  42
0
  0
VERTEX
  8
Top_Mask
  10
0.4043
  20
0.4383
  42
0
  0
SEQEND
  0
POLYLINE
  8
Top_Mask
  6
CONTINUOUS
  66
1
  70
0
  40
0.0
  41
0.0
  0
VERTEX
  8
Top_Mask
  10
0.3543
  20
0.4383
  42
0
  0
VERTEX
  8
Top_Mask
  10
0.3543
  20
0.5092
  42
0
  0
VERTEX
  8
Top_Mask
  10
0.3228
  20
0.5092
  42
0
  0
VERTEX
  8
Top_Mask
  10
0.3228
  20
0.4383
  42
0
  0
VERTEX
  8
Top_Mask
  10
0.3543
  20
0.4383
  42
0
  0
SEQEND
  0
POLYLINE
  8
Top_Paste
  6
CONTINUOUS
  66
1
  70
0
  40
0.0
  41
0.0
  0
VERTEX
  8
Top_Paste
  10
0.2441
  20
0.4587
  42
0
  0
VERTEX
  8
Top_Paste
  10
0.2441
  20
0.502
  42
0
  0
VERTEX
  8
Top_Paste
  10
0.2047
  20
0.502
  42
0
  0
VERTEX
  8
Top_Paste
  10
0.2047
  20
0.4587
  42
0
  0
VERTEX
  8
Top_Paste
  10
0.2441
  20
0.4587
  42
0
  0
SEQEND
  0
POLYLINE
  8
Top_Paste
  6
CONTINUOUS
  66
1
  70
0
  40
0.0
  41
0.0
  0
VERTEX
  8
Top_Paste
  10
0.2441
  20
0.3917
  42
0
  0
VERTEX
  8
Top_Paste
  10
0.2441
  20
0.435
  42
0
  0
VERTEX
  8
Top_Paste
  10
0.2047
  20
0.435
  42
0
  0
VERTEX
  8
Top_Paste
  10
0.2047
  20
0.3917
  42
0
  0
VERTEX
  8
Top_Paste
  10
0.2441
  20
0.3917
  42
0
  0
SEQEND
  0
POLYLINE
  8
Top_Paste
  6
CONTINUOUS
  66
1
  70
0
  40
0.0
  41
0.0
  0
VERTEX
  8
Top_Paste
  10
0.6417
  20
0.3878
  42
0
  0
VERTEX
  8
Top_Paste
  10
0.6417
  20
0.3445
  42
0
  0
VERTEX
  8
Top_Paste
  10
0.6811
  20
0.3445
  42
0
  0
VERTEX
  8
Top_Paste
  10
0.6811
  20
0.3878
  42
0
  0
VERTEX
  8
Top_Paste
  10
0.6417
  20
0.3878
  42
0
  0
SEQEND
  0
POLYLINE
  8
Top_Paste
  6
CONTINUOUS
  66
1
  70
0
  40
0.0
  41
0.0
  0
VERTEX
  8
Top_Paste
  10
0.6417
  20
0.4547
  42
0
  0
VERTEX
  8
Top_Paste
  10
0.6417
  20
0.4114
  42
0
  0
VERTEX
  8
Top_Paste
  10
0.6811
  20
0.4114
  42
0
  0
VERTEX
  8
Top_Paste
  10
0.6811
  20
0.4547
  42
0
  0
VERTEX
  8
Top_Paste
  10
0.6417
  20
0.4547
  42
0
  0
SEQEND
  0
POLYLINE
  8
Top_Paste
  6
CONTINUOUS
  66
1
  70
0
  40
0.0
  41
0.0
  0
VERTEX
  8
Top_Paste
  10
0.3615
  20
0.0852
  42
0
  0
VERTEX
  8
Top_Paste
  10
0.3865
  20
0.0852
  42
0
  0
VERTEX
  8
Top_Paste
  10
0.3865
  20
0.1352
  42
0
  0
VERTEX
  8
Top_Paste
  10
0.3615
  20
0.1352
  42
0
  0
VERTEX
  8
Top_Paste
  10
0.3615
  20
0.0852
  42
0
  0
SEQEND
  0
POLYLINE
  8
Top_Paste
  6
CONTINUOUS
  66
1
  70
0
  40
0.0
  41
0.0
  0
VERTEX
  8
Top_Paste
  10
0.3215
  20
0.0852
  42
0
  0
VERTEX
  8
Top_Paste
  10
0.3465
  20
0.0852
  42
0
  0
VERTEX
  8
Top_Paste
  10
0.3465
  20
0.1352
  42
0
  0
VERTEX
  8
Top_Paste
  10
0.3215
  20
0.1352
  42
0
  0
VERTEX
  8
Top_Paste
  10
0.3215
  20
0.0852
  42
0
  0
SEQEND
  0
POLYLINE
  8
Top_Paste
  6
CONTINUOUS
  66
1
  70
0
  40
0.0
  41
0.0
  0
VERTEX
  8
Top_Paste
  10
0.3543
  20
0.2283
  42
0
  0
VERTEX
  8
Top_Paste
  10
0.3543
  20
0.2992
  42
0
  0
VERTEX
  8
Top_Paste
  10
0.3228
  20
0.2992
  42
0
  0
VERTEX
  8
Top_Paste
  10
0.3228
  20
0.2283
  42
0
  0
VERTEX
  8
Top_Paste
  10
0.3543
  20
0.2283
  42
0
  0
SEQEND
  0
POLYLINE
  8
Top_Paste
  6
CONTINUOUS
  66
1
  70
0
  40
0.0
  41
0.0
  0
VERTEX
  8
Top_Paste
  10
0.4043
  20
0.2283
  42
0
  0
VERTEX
  8
Top_Paste
  10
0.4043
  20
0.2992
  42
0
  0
VERTEX
  8
Top_Paste
  10
0.3728
  20
0.2992
  42
0
  0
VERTEX
  8
Top_Paste
  10
0.3728
  20
0.2283
  42
0
  0
VERTEX
  8
Top_Paste
  10
0.4043
  20
0.2283
  42
0
  0
SEQEND
  0
POLYLINE
  8
Top_Paste
  6
CONTINUOUS
  66
1
  70
0
  40
0.0
  41
0.0
  0
VERTEX
  8
Top_Paste
  10
0.4543
  20
0.2283
  42
0
  0
VERTEX
  8
Top_Paste
  10
0.4543
  20
0.2992
  42
0
  0
VERTEX
  8
Top_Paste
  10
0.4228
  20
0.2992
  42
0
  0
VERTEX
  8
Top_Paste
  10
0.4228
  20
0.2283
  42
0
  0
VERTEX
  8
Top_Paste
  10
0.4543
  20
0.2283
  42
0
  0
SEQEND
  0
POLYLINE
  8
Top_Paste
  6
CONTINUOUS
  66
1
  70
0
  40
0.0
  41
0.0
  0
VERTEX
  8
Top_Paste
  10
0.5043
  20
0.2283
  42
0
  0
VERTEX
  8
Top_Paste
  10
0.5043
  20
0.2992
  42
0
  0
VERTEX
  8
Top_Paste
  10
0.4728
  20
0.2992
  42
0
  0
VERTEX
  8
Top_Paste
  10
0.4728
  20
0.2283
  42
0
  0
VERTEX
  8
Top_Paste
  10
0.5043
  20
0.2283
  42
0
  0
SEQEND
  0
POLYLINE
  8
Top_Paste
  6
CONTINUOUS
  66
1
  70
0
  40
0.0
  41
0.0
  0
VERTEX
  8
Top_Paste
  10
0.5043
  20
0.4383
  42
0
  0
VERTEX
  8
Top_Paste
  10
0.5043
  20
0.5092
  42
0
  0
VERTEX
  8
Top_Paste
  10
0.4728
  20
0.5092
  42
0
  0
VERTEX
  8
Top_Paste
  10
0.4728
  20
0.4383
  42
0
  0
VERTEX
  8
Top_Paste
  10
0.5043
  20
0.4383
  42
0
  0
SEQEND
  0
POLYLINE
  8
Top_Paste
  6
CONTINUOUS
  66
1
  70
0
  40
0.0
  41
0.0
  0
VERTEX
  8
Top_Paste
  10
0.4543
  20
0.4383
  42
0
  0
VERTEX
  8
Top_Paste
  10
0.4543
  20
0.5092
  42
0
  0
VERTEX
  8
Top_Paste
  10
0.4228
  20
0.5092
  42
0
  0
VERTEX
  8
Top_Paste
  10
0.4228
  20
0.4383
  42
0
  0
VERTEX
  8
Top_Paste
  10
0.4543
  20
0.4383
  42
0
  0
SEQEND
  0
POLYLINE
  8
Top_Paste
  6
CONTINUOUS
  66
1
  70
0
  40
0.0
  41
0.0
  0
VERTEX
  8
Top_Paste
  10
0.4043
  20
0.4383
  42
0
  0
VERTEX
  8
Top_Paste
  10
0.4043
  20
0.5092
  42
0
  0
VERTEX
  8
Top_Paste
  10
0.3728
  20
0.5092
  42
0
  0
VERTEX
  8
Top_Paste
  10
0.3728
  20
0.4383
  42
0
  0
VERTEX
  8
Top_Paste
  10
0.4043
  20
0.4383
  42
0
  0
SEQEND
  0
POLYLINE
  8
Top_Paste
  6
CONTINUOUS
  66
1
  70
0
  40
0.0
  41
0.0
  0
VERTEX
  8
Top_Paste
  10
0.3543
  20
0.4383
  42
0
  0
VERTEX
  8
Top_Paste
  10
0.3543
  20
0.5092
  42
0
  0
VERTEX
  8
Top_Paste
  10
0.3228
  20
0.5092
  42
0
  0
VERTEX
  8
Top_Paste
  10
0.3228
  20
0.4383
  42
0
  0
VERTEX
  8
Top_Paste
  10
0.3543
  20
0.4383
  42
0
  0
SEQEND
  0
POLYLINE
  8
Top
  6
CONTINUOUS
  66
1
  70
0
  40
0.0
  41
0.0
  0
VERTEX
  8
Top
  10
0.2441
  20
0.4587
  42
0
  0
VERTEX
  8
Top
  10
0.2441
  20
0.502
  42
0
  0
VERTEX
  8
Top
  10
0.2047
  20
0.502
  42
0
  0
VERTEX
  8
Top
  10
0.2047
  20
0.4587
  42
0
  0
VERTEX
  8
Top
  10
0.2441
  20
0.4587
  42
0
  0
SEQEND
  0
POLYLINE
  8
Top
  6
CONTINUOUS
  66
1
  70
0
  40
0.0
  41
0.0
  0
VERTEX
  8
Top
  10
0.2441
  20
0.3917
  42
0
  0
VERTEX
  8
Top
  10
0.2441
  20
0.435
  42
0
  0
VERTEX
  8
Top
  10
0.2047
  20
0.435
  42
0
  0
VERTEX
  8
Top
  10
0.2047
  20
0.3917
  42
0
  0
VERTEX
  8
Top
  10
0.2441
  20
0.3917
  42
0
  0
SEQEND
  0
POLYLINE
  8
Top
  6
CONTINUOUS
  66
1
  70
0
  40
0.0591
  41
0.0591
  0
VERTEX
  8
Top
  10
0.6201
  20
0.5512
  42
1
  0
VERTEX
  8
Top
  10
0.561
  20
0.5512
  42
1
  0
VERTEX
  8
Top
  10
0.6201
  20
0.5512
  42
1
  0
SEQEND
  0
POLYLINE
  8
Top
  6
CONTINUOUS
  66
1
  70
0
  40
0.0591
  41
0.0591
  0
VERTEX
  8
Top
  10
0.6201
  20
0.1181
  42
1
  0
VERTEX
  8
Top
  10
0.561
  20
0.1181
  42
1
  0
VERTEX
  8
Top
  10
0.6201
  20
0.1181
  42
1
  0
SEQEND
  0
SOLID
  8
Top
  10
0.0217
  20
0.5177
  11
0.0886
  21
0.5177
  12
0.0217
  22
0.4508
  13
0.0886
  23
0.4508
  0
POLYLINE
  8
Top
  6
CONTINUOUS
  66
1
  70
0
  40
0.0335
  41
0.0335
  0
VERTEX
  8
Top
  10
0.0719
  20
0.3843
  42
1
  0
VERTEX
  8
Top
  10
0.0384
  20
0.3843
  42
1
  0
VERTEX
  8
Top
  10
0.0719
  20
0.3843
  42
1
  0
SEQEND
  0
POLYLINE
  8
Top
  6
CONTINUOUS
  66
1
  70
0
  40
0.0335
  41
0.0335
  0
VERTEX
  8
Top
  10
0.0719
  20
0.2843
  42
1
  0
VERTEX
  8
Top
  10
0.0384
  20
0.2843
  42
1
  0
VERTEX
  8
Top
  10
0.0719
  20
0.2843
  42
1
  0
SEQEND
  0
POLYLINE
  8
Top
  6
CONTINUOUS
  66
1
  70
0
  40
0.0335
  41
0.0335
  0
VERTEX
  8
Top
  10
0.0719
  20
0.1843
  42
1
  0
VERTEX
  8
Top
  10
0.0384
  20
0.1843
  42
1
  0
VERTEX
  8
Top
  10
0.0719
  20
0.1843
  42
1
  0
SEQEND
  0
POLYLINE
  8
Top
  6
CONTINUOUS
  66
1
  70
0
  40
0.0
  41
0.0
  0
VERTEX
  8
Top
  10
0.6417
  20
0.3878
  42
0
  0
VERTEX
  8
Top
  10
0.6417
  20
0.3445
  42
0
  0
VERTEX
  8
Top
  10
0.6811
  20
0.3445
  42
0
  0
VERTEX
  8
Top
  10
0.6811
  20
0.3878
  42
0
  0
VERTEX
  8
Top
  10
0.6417
  20
0.3878
  42
0
  0
SEQEND
  0
POLYLINE
  8
Top
  6
CONTINUOUS
  66
1
  70
0
  40
0.0
  41
0.0
  0
VERTEX
  8
Top
  10
0.6417
  20
0.4547
  42
0
  0
VERTEX
  8
Top
  10
0.6417
  20
0.4114
  42
0
  0
VERTEX
  8
Top
  10
0.6811
  20
0.4114
  42
0
  0
VERTEX
  8
Top
  10
0.6811
  20
0.4547
  42
0
  0
VERTEX
  8
Top
  10
0.6417
  20
0.4547
  42
0
  0
SEQEND
  0
POLYLINE
  8
Top
  6
CONTINUOUS
  66
1
  70
0
  40
0.0
  41
0.0
  0
VERTEX
  8
Top
  10
0.3615
  20
0.0852
  42
0
  0
VERTEX
  8
Top
  10
0.3865
  20
0.0852
  42
0
  0
VERTEX
  8
Top
  10
0.3865
  20
0.1352
  42
0
  0
VERTEX
  8
Top
  10
0.3615
  20
0.1352
  42
0
  0
VERTEX
  8
Top
  10
0.3615
  20
0.0852
  42
0
  0
SEQEND
  0
POLYLINE
  8
Top
  6
CONTINUOUS
  66
1
  70
0
  40
0.0
  41
0.0
  0
VERTEX
  8
Top
  10
0.3215
  20
0.0852
  42
0
  0
VERTEX
  8
Top
  10
0.3465
  20
0.0852
  42
0
  0
VERTEX
  8
Top
  10
0.3465
  20
0.1352
  42
0
  0
VERTEX
  8
Top
  10
0.3215
  20
0.1352
  42
0
  0
VERTEX
  8
Top
  10
0.3215
  20
0.0852
  42
0
  0
SEQEND
  0
POLYLINE
  8
Top
  6
CONTINUOUS
  66
1
  70
0
  40
0.0
  41
0.0
  0
VERTEX
  8
Top
  10
0.3543
  20
0.2283
  42
0
  0
VERTEX
  8
Top
  10
0.3543
  20
0.2992
  42
0
  0
VERTEX
  8
Top
  10
0.3228
  20
0.2992
  42
0
  0
VERTEX
  8
Top
  10
0.3228
  20
0.2283
  42
0
  0
VERTEX
  8
Top
  10
0.3543
  20
0.2283
  42
0
  0
SEQEND
  0
POLYLINE
  8
Top
  6
CONTINUOUS
  66
1
  70
0
  40
0.0
  41
0.0
  0
VERTEX
  8
Top
  10
0.4043
  20
0.2283
  42
0
  0
VERTEX
  8
Top
  10
0.4043
  20
0.2992
  42
0
  0
VERTEX
  8
Top
  10
0.3728
  20
0.2992
  42
0
  0
VERTEX
  8
Top
  10
0.3728
  20
0.2283
  42
0
  0
VERTEX
  8
Top
  10
0.4043
  20
0.2283
  42
0
  0
SEQEND
  0
POLYLINE
  8
Top
  6
CONTINUOUS
  66
1
  70
0
  40
0.0
  41
0.0
  0
VERTEX
  8
Top
  10
0.4543
  20
0.2283
  42
0
  0
VERTEX
  8
Top
  10
0.4543
  20
0.2992
  42
0
  0
VERTEX
  8
Top
  10
0.4228
  20
0.2992
  42
0
  0
VERTEX
  8
Top
  10
0.4228
  20
0.2283
  42
0
  0
VERTEX
  8
Top
  10
0.4543
  20
0.2283
  42
0
  0
SEQEND
  0
POLYLINE
  8
Top
  6
CONTINUOUS
  66
1
  70
0
  40
0.0
  41
0.0
  0
VERTEX
  8
Top
  10
0.5043
  20
0.2283
  42
0
  0
VERTEX
  8
Top
  10
0.5043
  20
0.2992
  42
0
  0
VERTEX
  8
Top
  10
0.4728
  20
0.2992
  42
0
  0
VERTEX
  8
Top
  10
0.4728
  20
0.2283
  42
0
  0
VERTEX
  8
Top
  10
0.5043
  20
0.2283
  42
0
  0
SEQEND
  0
POLYLINE
  8
Top
  6
CONTINUOUS
  66
1
  70
0
  40
0.0
  41
0.0
  0
VERTEX
  8
Top
  10
0.5043
  20
0.4383
  42
0
  0
VERTEX
  8
Top
  10
0.5043
  20
0.5092
  42
0
  0
VERTEX
  8
Top
  10
0.4728
  20
0.5092
  42
0
  0
VERTEX
  8
Top
  10
0.4728
  20
0.4383
  42
0
  0
VERTEX
  8
Top
  10
0.5043
  20
0.4383
  42
0
  0
SEQEND
  0
POLYLINE
  8
Top
  6
CONTINUOUS
  66
1
  70
0
  40
0.0
  41
0.0
  0
VERTEX
  8
Top
  10
0.4543
  20
0.4383
  42
0
  0
VERTEX
  8
Top
  10
0.4543
  20
0.5092
  42
0
  0
VERTEX
  8
Top
  10
0.4228
  20
0.5092
  42
0
  0
VERTEX
  8
Top
  10
0.4228
  20
0.4383
  42
0
  0
VERTEX
  8
Top
  10
0.4543
  20
0.4383
  42
0
  0
SEQEND
  0
POLYLINE
  8
Top
  6
CONTINUOUS
  66
1
  70
0
  40
0.0
  41
0.0
  0
VERTEX
  8
Top
  10
0.4043
  20
0.4383
  42
0
  0
VERTEX
  8
Top
  10
0.4043
  20
0.5092
  42
0
  0
VERTEX
  8
Top
  10
0.3728
  20
0.5092
  42
0
  0
VERTEX
  8
Top
  10
0.3728
  20
0.4383
  42
0
  0
VERTEX
  8
Top
  10
0.4043
  20
0.4383
  42
0
  0
SEQEND
  0
POLYLINE
  8
Top
  6
CONTINUOUS
  66
1
  70
0
  40
0.0
  41
0.0
  0
VERTEX
  8
Top
  10
0.3543
  20
0.4383
  42
0
  0
VERTEX
  8
Top
  10
0.3543
  20
0.5092
  42
0
  0
VERTEX
  8
Top
  10
0.3228
  20
0.5092
  42
0
  0
VERTEX
  8
Top
  10
0.3228
  20
0.4383
  42
0
  0
VERTEX
  8
Top
  10
0.3543
  20
0.4383
  42
0
  0
SEQEND
  0
POLYLINE
  8
Top
  6
CONTINUOUS
  66
1
  70
0
  40
0.0098
  41
0.0098
  0
VERTEX
  8
Top
  10
0.2018
  20
0.2402
  42
1
  0
VERTEX
  8
Top
  10
0.1919
  20
0.2402
  42
1
  0
VERTEX
  8
Top
  10
0.2018
  20
0.2402
  42
1
  0
SEQEND
  0
POLYLINE
  8
Top
  6
CONTINUOUS
  66
1
  70
0
  40
0.0079
  41
0.0079
  0
VERTEX
  8
Top
  10
0.0551
  20
0.1843
  42
0
  0
VERTEX
  8
Top
  10
0.3693
  20
0.1843
  42
0
  0
SEQEND
  0
POLYLINE
  8
Top
  6
CONTINUOUS
  66
1
  70
0
  40
0.0039
  41
0.0039
  0
VERTEX
  8
Top
  10
0.0531
  20
0.1843
  42
1
  0
VERTEX
  8
Top
  10
0.0571
  20
0.1843
  42
1
  0
VERTEX
  8
Top
  10
0.0531
  20
0.1843
  42
1
  0
SEQEND
  0
POLYLINE
  8
Top
  6
CONTINUOUS
  66
1
  70
0
  40
0.0039
  41
0.0039
  0
VERTEX
  8
Top
  10
0.3673
  20
0.1843
  42
1
  0
VERTEX
  8
Top
  10
0.3713
  20
0.1843
  42
1
  0
VERTEX
  8
Top
  10
0.3673
  20
0.1843
  42
1
  0
SEQEND
  0
POLYLINE
  8
Top
  6
CONTINUOUS
  66
1
  70
0
  40
0.0079
  41
0.0079
  0
VERTEX
  8
Top
  10
0.3693
  20
0.1843
  42
0
  0
VERTEX
  8
Top
  10
0.3701
  20
0.185
  42
0
  0
SEQEND
  0
POLYLINE
  8
Top
  6
CONTINUOUS
  66
1
  70
0
  40
0.0039
  41
0.0039
  0
VERTEX
  8
Top
  10
0.3673
  20
0.1843
  42
1
  0
VERTEX
  8
Top
  10
0.3713
  20
0.1843
  42
1
  0
VERTEX
  8
Top
  10
0.3673
  20
0.1843
  42
1
  0
SEQEND
  0
POLYLINE
  8
Top
  6
CONTINUOUS
  66
1
  70
0
  40
0.0039
  41
0.0039
  0
VERTEX
  8
Top
  10
0.3681
  20
0.185
  42
1
  0
VERTEX
  8
Top
  10
0.372
  20
0.185
  42
1
  0
VERTEX
  8
Top
  10
0.3681
  20
0.185
  42
1
  0
SEQEND
  0
POLYLINE
  8
Top
  6
CONTINUOUS
  66
1
  70
0
  40
0.0079
  41
0.0079
  0
VERTEX
  8
Top
  10
0.3701
  20
0.185
  42
0
  0
VERTEX
  8
Top
  10
0.3701
  20
0.2453
  42
0
  0
SEQEND
  0
POLYLINE
  8
Top
  6
CONTINUOUS
  66
1
  70
0
  40
0.0039
  41
0.0039
  0
VERTEX
  8
Top
  10
0.3681
  20
0.185
  42
1
  0
VERTEX
  8
Top
  10
0.372
  20
0.185
  42
1
  0
VERTEX
  8
Top
  10
0.3681
  20
0.185
  42
1
  0
SEQEND
  0
POLYLINE
  8
Top
  6
CONTINUOUS
  66
1
  70
0
  40
0.0039
  41
0.0039
  0
VERTEX
  8
Top
  10
0.3681
  20
0.2453
  42
1
  0
VERTEX
  8
Top
  10
0.372
  20
0.2453
  42
1
  0
VERTEX
  8
Top
  10
0.3681
  20
0.2453
  42
1
  0
SEQEND
  0
POLYLINE
  8
Top
  6
CONTINUOUS
  66
1
  70
0
  40
0.0079
  41
0.0079
  0
VERTEX
  8
Top
  10
0.3701
  20
0.2453
  42
0
  0
VERTEX
  8
Top
  10
0.3886
  20
0.2638
  42
0
  0
SEQEND
  0
POLYLINE
  8
Top
  6
CONTINUOUS
  66
1
  70
0
  40
0.0039
  41
0.0039
  0
VERTEX
  8
Top
  10
0.3681
  20
0.2453
  42
1
  0
VERTEX
  8
Top
  10
0.372
  20
0.2453
  42
1
  0
VERTEX
  8
Top
  10
0.3681
  20
0.2453
  42
1
  0
SEQEND
  0
POLYLINE
  8
Top
  6
CONTINUOUS
  66
1
  70
0
  40
0.0039
  41
0.0039
  0
VERTEX
  8
Top
  10
0.3866
  20
0.2638
  42
1
  0
VERTEX
  8
Top
  10
0.3906
  20
0.2638
  42
1
  0
VERTEX
  8
Top
  10
0.3866
  20
0.2638
  42
1
  0
SEQEND
  0
POLYLINE
  8
Top
  6
CONTINUOUS
  66
1
  70
0
  40
0.0079
  41
0.0079
  0
VERTEX
  8
Top
  10
0.0551
  20
0.1843
  42
0
  0
VERTEX
  8
Top
  10
0.26
  20
0.1843
  42
0
  0
SEQEND
  0
POLYLINE
  8
Top
  6
CONTINUOUS
  66
1
  70
0
  40
0.0039
  41
0.0039
  0
VERTEX
  8
Top
  10
0.0531
  20
0.1843
  42
1
  0
VERTEX
  8
Top
  10
0.0571
  20
0.1843
  42
1
  0
VERTEX
  8
Top
  10
0.0531
  20
0.1843
  42
1
  0
SEQEND
  0
POLYLINE
  8
Top
  6
CONTINUOUS
  66
1
  70
0
  40
0.0039
  41
0.0039
  0
VERTEX
  8
Top
  10
0.258
  20
0.1843
  42
1
  0
VERTEX
  8
Top
  10
0.262
  20
0.1843
  42
1
  0
VERTEX
  8
Top
  10
0.258
  20
0.1843
  42
1
  0
SEQEND
  0
POLYLINE
  8
Top
  6
CONTINUOUS
  66
1
  70
0
  40
0.0079
  41
0.0079
  0
VERTEX
  8
Top
  10
0.26
  20
0.1843
  42
0
  0
VERTEX
  8
Top
  10
0.334
  20
0.1102
  42
0
  0
SEQEND
  0
POLYLINE
  8
Top
  6
CONTINUOUS
  66
1
  70
0
  40
0.0039
  41
0.0039
  0
VERTEX
  8
Top
  10
0.258
  20
0.1843
  42
1
  0
VERTEX
  8
Top
  10
0.262
  20
0.1843
  42
1
  0
VERTEX
  8
Top
  10
0.258
  20
0.1843
  42
1
  0
SEQEND
  0
POLYLINE
  8
Top
  6
CONTINUOUS
  66
1
  70
0
  40
0.0039
  41
0.0039
  0
VERTEX
  8
Top
  10
0.332
  20
0.1102
  42
1
  0
VERTEX
  8
Top
  10
0.336
  20
0.1102
  42
1
  0
VERTEX
  8
Top
  10
0.332
  20
0.1102
  42
1
  0
SEQEND
  0
POLYLINE
  8
Top
  6
CONTINUOUS
  66
1
  70
0
  40
0.0118
  41
0.0118
  0
VERTEX
  8
Top
  10
0.2244
  20
0.4134
  42
0
  0
VERTEX
  8
Top
  10
0.0843
  20
0.4134
  42
0
  0
SEQEND
  0
POLYLINE
  8
Top
  6
CONTINUOUS
  66
1
  70
0
  40
0.0059
  41
0.0059
  0
VERTEX
  8
Top
  10
0.2215
  20
0.4134
  42
1
  0
VERTEX
  8
Top
  10
0.2274
  20
0.4134
  42
1
  0
VERTEX
  8
Top
  10
0.2215
  20
0.4134
  42
1
  0
SEQEND
  0
POLYLINE
  8
Top
  6
CONTINUOUS
  66
1
  70
0
  40
0.0059
  41
0.0059
  0
VERTEX
  8
Top
  10
0.0813
  20
0.4134
  42
1
  0
VERTEX
  8
Top
  10
0.0872
  20
0.4134
  42
1
  0
VERTEX
  8
Top
  10
0.0813
  20
0.4134
  42
1
  0
SEQEND
  0
POLYLINE
  8
Top
  6
CONTINUOUS
  66
1
  70
0
  40
0.0118
  41
0.0118
  0
VERTEX
  8
Top
  10
0.0843
  20
0.4134
  42
0
  0
VERTEX
  8
Top
  10
0.0551
  20
0.3843
  42
0
  0
SEQEND
  0
POLYLINE
  8
Top
  6
CONTINUOUS
  66
1
  70
0
  40
0.0059
  41
0.0059
  0
VERTEX
  8
Top
  10
0.0813
  20
0.4134
  42
1
  0
VERTEX
  8
Top
  10
0.0872
  20
0.4134
  42
1
  0
VERTEX
  8
Top
  10
0.0813
  20
0.4134
  42
1
  0
SEQEND
  0
POLYLINE
  8
Top
  6
CONTINUOUS
  66
1
  70
0
  40
0.0059
  41
0.0059
  0
VERTEX
  8
Top
  10
0.0522
  20
0.3843
  42
1
  0
VERTEX
  8
Top
  10
0.0581
  20
0.3843
  42
1
  0
VERTEX
  8
Top
  10
0.0522
  20
0.3843
  42
1
  0
SEQEND
  0
POLYLINE
  8
Top
  6
CONTINUOUS
  66
1
  70
0
  40
0.0118
  41
0.0118
  0
VERTEX
  8
Top
  10
0.3386
  20
0.2638
  42
0
  0
VERTEX
  8
Top
  10
0.2205
  20
0.2638
  42
0
  0
SEQEND
  0
POLYLINE
  8
Top
  6
CONTINUOUS
  66
1
  70
0
  40
0.0059
  41
0.0059
  0
VERTEX
  8
Top
  10
0.3356
  20
0.2638
  42
1
  0
VERTEX
  8
Top
  10
0.3415
  20
0.2638
  42
1
  0
VERTEX
  8
Top
  10
0.3356
  20
0.2638
  42
1
  0
SEQEND
  0
POLYLINE
  8
Top
  6
CONTINUOUS
  66
1
  70
0
  40
0.0059
  41
0.0059
  0
VERTEX
  8
Top
  10
0.2175
  20
0.2638
  42
1
  0
VERTEX
  8
Top
  10
0.2234
  20
0.2638
  42
1
  0
VERTEX
  8
Top
  10
0.2175
  20
0.2638
  42
1
  0
SEQEND
  0
POLYLINE
  8
Top
  6
CONTINUOUS
  66
1
  70
0
  40
0.0118
  41
0.0118
  0
VERTEX
  8
Top
  10
0.2205
  20
0.2638
  42
0
  0
VERTEX
  8
Top
  10
0.1969
  20
0.2402
  42
0
  0
SEQEND
  0
POLYLINE
  8
Top
  6
CONTINUOUS
  66
1
  70
0
  40
0.0059
  41
0.0059
  0
VERTEX
  8
Top
  10
0.2175
  20
0.2638
  42
1
  0
VERTEX
  8
Top
  10
0.2234
  20
0.2638
  42
1
  0
VERTEX
  8
Top
  10
0.2175
  20
0.2638
  42
1
  0
SEQEND
  0
POLYLINE
  8
Top
  6
CONTINUOUS
  66
1
  70
0
  40
0.0059
  41
0.0059
  0
VERTEX
  8
Top
  10
0.1939
  20
0.2402
  42
1
  0
VERTEX
  8
Top
  10
0.1998
  20
0.2402
  42
1
  0
VERTEX
  8
Top
  10
0.1939
  20
0.2402
  42
1
  0
SEQEND
  0
POLYLINE
  8
Top
  6
CONTINUOUS
  66
1
  70
0
  40
0.0079
  41
0.0079
  0
VERTEX
  8
Top
  10
0.374
  20
0.1102
  42
0
  0
VERTEX
  8
Top
  10
0.4606
  20
0.1102
  42
0
  0
SEQEND
  0
POLYLINE
  8
Top
  6
CONTINUOUS
  66
1
  70
0
  40
0.0039
  41
0.0039
  0
VERTEX
  8
Top
  10
0.372
  20
0.1102
  42
1
  0
VERTEX
  8
Top
  10
0.376
  20
0.1102
  42
1
  0
VERTEX
  8
Top
  10
0.372
  20
0.1102
  42
1
  0
SEQEND
  0
POLYLINE
  8
Top
  6
CONTINUOUS
  66
1
  70
0
  40
0.0039
  41
0.0039
  0
VERTEX
  8
Top
  10
0.4587
  20
0.1102
  42
1
  0
VERTEX
  8
Top
  10
0.4626
  20
0.1102
  42
1
  0
VERTEX
  8
Top
  10
0.4587
  20
0.1102
  42
1
  0
SEQEND
  0
POLYLINE
  8
Top
  6
CONTINUOUS
  66
1
  70
0
  40
0.0079
  41
0.0079
  0
VERTEX
  8
Top
  10
0.4606
  20
0.1102
  42
0
  0
VERTEX
  8
Top
  10
0.6614
  20
0.311
  42
0
  0
SEQEND
  0
POLYLINE
  8
Top
  6
CONTINUOUS
  66
1
  70
0
  40
0.0039
  41
0.0039
  0
VERTEX
  8
Top
  10
0.4587
  20
0.1102
  42
1
  0
VERTEX
  8
Top
  10
0.4626
  20
0.1102
  42
1
  0
VERTEX
  8
Top
  10
0.4587
  20
0.1102
  42
1
  0
SEQEND
  0
POLYLINE
  8
Top
  6
CONTINUOUS
  66
1
  70
0
  40
0.0039
  41
0.0039
  0
VERTEX
  8
Top
  10
0.6594
  20
0.311
  42
1
  0
VERTEX
  8
Top
  10
0.6634
  20
0.311
  42
1
  0
VERTEX
  8
Top
  10
0.6594
  20
0.311
  42
1
  0
SEQEND
  0
POLYLINE
  8
Top
  6
CONTINUOUS
  66
1
  70
0
  40
0.0079
  41
0.0079
  0
VERTEX
  8
Top
  10
0.6614
  20
0.311
  42
0
  0
VERTEX
  8
Top
  10
0.6614
  20
0.3661
  42
0
  0
SEQEND
  0
POLYLINE
  8
Top
  6
CONTINUOUS
  66
1
  70
0
  40
0.0039
  41
0.0039
  0
VERTEX
  8
Top
  10
0.6594
  20
0.311
  42
1
  0
VERTEX
  8
Top
  10
0.6634
  20
0.311
  42
1
  0
VERTEX
  8
Top
  10
0.6594
  20
0.311
  42
1
  0
SEQEND
  0
POLYLINE
  8
Top
  6
CONTINUOUS
  66
1
  70
0
  40
0.0039
  41
0.0039
  0
VERTEX
  8
Top
  10
0.6594
  20
0.3661
  42
1
  0
VERTEX
  8
Top
  10
0.6634
  20
0.3661
  42
1
  0
VERTEX
  8
Top
  10
0.6594
  20
0.3661
  42
1
  0
SEQEND
  0
POLYLINE
  8
Top
  6
CONTINUOUS
  66
1
  70
0
  40
0.0079
  41
0.0079
  0
VERTEX
  8
Top
  10
0.4386
  20
0.2638
  42
0
  0
VERTEX
  8
Top
  10
0.4386
  20
0.2976
  42
0
  0
SEQEND
  0
POLYLINE
  8
Top
  6
CONTINUOUS
  66
1
  70
0
  40
0.0039
  41
0.0039
  0
VERTEX
  8
Top
  10
0.4366
  20
0.2638
  42
1
  0
VERTEX
  8
Top
  10
0.4406
  20
0.2638
  42
1
  0
VERTEX
  8
Top
  10
0.4366
  20
0.2638
  42
1
  0
SEQEND
  0
POLYLINE
  8
Top
  6
CONTINUOUS
  66
1
  70
0
  40
0.0039
  41
0.0039
  0
VERTEX
  8
Top
  10
0.4366
  20
0.2976
  42
1
  0
VERTEX
  8
Top
  10
0.4406
  20
0.2976
  42
1
  0
VERTEX
  8
Top
  10
0.4366
  20
0.2976
  42
1
  0
SEQEND
  0
POLYLINE
  8
Top
  6
CONTINUOUS
  66
1
  70
0
  40
0.0079
  41
0.0079
  0
VERTEX
  8
Top
  10
0.4386
  20
0.2976
  42
0
  0
VERTEX
  8
Top
  10
0.3898
  20
0.3465
  42
0
  0
SEQEND
  0
POLYLINE
  8
Top
  6
CONTINUOUS
  66
1
  70
0
  40
0.0039
  41
0.0039
  0
VERTEX
  8
Top
  10
0.4366
  20
0.2976
  42
1
  0
VERTEX
  8
Top
  10
0.4406
  20
0.2976
  42
1
  0
VERTEX
  8
Top
  10
0.4366
  20
0.2976
  42
1
  0
SEQEND
  0
POLYLINE
  8
Top
  6
CONTINUOUS
  66
1
  70
0
  40
0.0039
  41
0.0039
  0
VERTEX
  8
Top
  10
0.3878
  20
0.3465
  42
1
  0
VERTEX
  8
Top
  10
0.3917
  20
0.3465
  42
1
  0
VERTEX
  8
Top
  10
0.3878
  20
0.3465
  42
1
  0
SEQEND
  0
POLYLINE
  8
Top
  6
CONTINUOUS
  66
1
  70
0
  40
0.0079
  41
0.0079
  0
VERTEX
  8
Top
  10
0.3898
  20
0.3465
  42
0
  0
VERTEX
  8
Top
  10
0.1173
  20
0.3465
  42
0
  0
SEQEND
  0
POLYLINE
  8
Top
  6
CONTINUOUS
  66
1
  70
0
  40
0.0039
  41
0.0039
  0
VERTEX
  8
Top
  10
0.3878
  20
0.3465
  42
1
  0
VERTEX
  8
Top
  10
0.3917
  20
0.3465
  42
1
  0
VERTEX
  8
Top
  10
0.3878
  20
0.3465
  42
1
  0
SEQEND
  0
POLYLINE
  8
Top
  6
CONTINUOUS
  66
1
  70
0
  40
0.0039
  41
0.0039
  0
VERTEX
  8
Top
  10
0.1154
  20
0.3465
  42
1
  0
VERTEX
  8
Top
  10
0.1193
  20
0.3465
  42
1
  0
VERTEX
  8
Top
  10
0.1154
  20
0.3465
  42
1
  0
SEQEND
  0
POLYLINE
  8
Top
  6
CONTINUOUS
  66
1
  70
0
  40
0.0079
  41
0.0079
  0
VERTEX
  8
Top
  10
0.1173
  20
0.3465
  42
0
  0
VERTEX
  8
Top
  10
0.0551
  20
0.2843
  42
0
  0
SEQEND
  0
POLYLINE
  8
Top
  6
CONTINUOUS
  66
1
  70
0
  40
0.0039
  41
0.0039
  0
VERTEX
  8
Top
  10
0.1154
  20
0.3465
  42
1
  0
VERTEX
  8
Top
  10
0.1193
  20
0.3465
  42
1
  0
VERTEX
  8
Top
  10
0.1154
  20
0.3465
  42
1
  0
SEQEND
  0
POLYLINE
  8
Top
  6
CONTINUOUS
  66
1
  70
0
  40
0.0039
  41
0.0039
  0
VERTEX
  8
Top
  10
0.0531
  20
0.2843
  42
1
  0
VERTEX
  8
Top
  10
0.0571
  20
0.2843
  42
1
  0
VERTEX
  8
Top
  10
0.0531
  20
0.2843
  42
1
  0
SEQEND
  0
POLYLINE
  8
Top
  6
CONTINUOUS
  66
1
  70
0
  40
0.0118
  41
0.0118
  0
VERTEX
  8
Top
  10
0.6614
  20
0.4331
  42
0
  0
VERTEX
  8
Top
  10
0.6579
  20
0.4331
  42
0
  0
SEQEND
  0
POLYLINE
  8
Top
  6
CONTINUOUS
  66
1
  70
0
  40
0.0059
  41
0.0059
  0
VERTEX
  8
Top
  10
0.6585
  20
0.4331
  42
1
  0
VERTEX
  8
Top
  10
0.6644
  20
0.4331
  42
1
  0
VERTEX
  8
Top
  10
0.6585
  20
0.4331
  42
1
  0
SEQEND
  0
POLYLINE
  8
Top
  6
CONTINUOUS
  66
1
  70
0
  40
0.0059
  41
0.0059
  0
VERTEX
  8
Top
  10
0.6549
  20
0.4331
  42
1
  0
VERTEX
  8
Top
  10
0.6608
  20
0.4331
  42
1
  0
VERTEX
  8
Top
  10
0.6549
  20
0.4331
  42
1
  0
SEQEND
  0
POLYLINE
  8
Top
  6
CONTINUOUS
  66
1
  70
0
  40
0.0118
  41
0.0118
  0
VERTEX
  8
Top
  10
0.6579
  20
0.4331
  42
0
  0
VERTEX
  8
Top
  10
0.4886
  20
0.2638
  42
0
  0
SEQEND
  0
POLYLINE
  8
Top
  6
CONTINUOUS
  66
1
  70
0
  40
0.0059
  41
0.0059
  0
VERTEX
  8
Top
  10
0.6549
  20
0.4331
  42
1
  0
VERTEX
  8
Top
  10
0.6608
  20
0.4331
  42
1
  0
VERTEX
  8
Top
  10
0.6549
  20
0.4331
  42
1
  0
SEQEND
  0
POLYLINE
  8
Top
  6
CONTINUOUS
  66
1
  70
0
  40
0.0059
  41
0.0059
  0
VERTEX
  8
Top
  10
0.4856
  20
0.2638
  42
1
  0
VERTEX
  8
Top
  10
0.4915
  20
0.2638
  42
1
  0
VERTEX
  8
Top
  10
0.4856
  20
0.2638
  42
1
  0
SEQEND
  0
POLYLINE
  8
Top
  6
CONTINUOUS
  66
1
  70
0
  40
0.0118
  41
0.0118
  0
VERTEX
  8
Top
  10
0.4886
  20
0.2638
  42
0
  0
VERTEX
  8
Top
  10
0.4886
  20
0.3736
  42
0
  0
SEQEND
  0
POLYLINE
  8
Top
  6
CONTINUOUS
  66
1
  70
0
  40
0.0059
  41
0.0059
  0
VERTEX
  8
Top
  10
0.4856
  20
0.2638
  42
1
  0
VERTEX
  8
Top
  10
0.4915
  20
0.2638
  42
1
  0
VERTEX
  8
Top
  10
0.4856
  20
0.2638
  42
1
  0
SEQEND
  0
POLYLINE
  8
Top
  6
CONTINUOUS
  66
1
  70
0
  40
0.0059
  41
0.0059
  0
VERTEX
  8
Top
  10
0.4856
  20
0.3736
  42
1
  0
VERTEX
  8
Top
  10
0.4915
  20
0.3736
  42
1
  0
VERTEX
  8
Top
  10
0.4856
  20
0.3736
  42
1
  0
SEQEND
  0
POLYLINE
  8
Top
  6
CONTINUOUS
  66
1
  70
0
  40
0.0118
  41
0.0118
  0
VERTEX
  8
Top
  10
0.4886
  20
0.3736
  42
0
  0
VERTEX
  8
Top
  10
0.4606
  20
0.4016
  42
0
  0
SEQEND
  0
POLYLINE
  8
Top
  6
CONTINUOUS
  66
1
  70
0
  40
0.0059
  41
0.0059
  0
VERTEX
  8
Top
  10
0.4856
  20
0.3736
  42
1
  0
VERTEX
  8
Top
  10
0.4915
  20
0.3736
  42
1
  0
VERTEX
  8
Top
  10
0.4856
  20
0.3736
  42
1
  0
SEQEND
  0
POLYLINE
  8
Top
  6
CONTINUOUS
  66
1
  70
0
  40
0.0059
  41
0.0059
  0
VERTEX
  8
Top
  10
0.4577
  20
0.4016
  42
1
  0
VERTEX
  8
Top
  10
0.4636
  20
0.4016
  42
1
  0
VERTEX
  8
Top
  10
0.4577
  20
0.4016
  42
1
  0
SEQEND
  0
POLYLINE
  8
Top
  6
CONTINUOUS
  66
1
  70
0
  40
0.0118
  41
0.0118
  0
VERTEX
  8
Top
  10
0.4606
  20
0.4016
  42
0
  0
VERTEX
  8
Top
  10
0.3031
  20
0.4016
  42
0
  0
SEQEND
  0
POLYLINE
  8
Top
  6
CONTINUOUS
  66
1
  70
0
  40
0.0059
  41
0.0059
  0
VERTEX
  8
Top
  10
0.4577
  20
0.4016
  42
1
  0
VERTEX
  8
Top
  10
0.4636
  20
0.4016
  42
1
  0
VERTEX
  8
Top
  10
0.4577
  20
0.4016
  42
1
  0
SEQEND
  0
POLYLINE
  8
Top
  6
CONTINUOUS
  66
1
  70
0
  40
0.0059
  41
0.0059
  0
VERTEX
  8
Top
  10
0.3002
  20
0.4016
  42
1
  0
VERTEX
  8
Top
  10
0.3061
  20
0.4016
  42
1
  0
VERTEX
  8
Top
  10
0.3002
  20
0.4016
  42
1
  0
SEQEND
  0
POLYLINE
  8
Top
  6
CONTINUOUS
  66
1
  70
0
  40
0.0118
  41
0.0118
  0
VERTEX
  8
Top
  10
0.3031
  20
0.4016
  42
0
  0
VERTEX
  8
Top
  10
0.2244
  20
0.4803
  42
0
  0
SEQEND
  0
POLYLINE
  8
Top
  6
CONTINUOUS
  66
1
  70
0
  40
0.0059
  41
0.0059
  0
VERTEX
  8
Top
  10
0.3002
  20
0.4016
  42
1
  0
VERTEX
  8
Top
  10
0.3061
  20
0.4016
  42
1
  0
VERTEX
  8
Top
  10
0.3002
  20
0.4016
  42
1
  0
SEQEND
  0
POLYLINE
  8
Top
  6
CONTINUOUS
  66
1
  70
0
  40
0.0059
  41
0.0059
  0
VERTEX
  8
Top
  10
0.2215
  20
0.4803
  42
1
  0
VERTEX
  8
Top
  10
0.2274
  20
0.4803
  42
1
  0
VERTEX
  8
Top
  10
0.2215
  20
0.4803
  42
1
  0
SEQEND
  0
POLYLINE
  8
Top
  6
CONTINUOUS
  66
1
  70
0
  40
0.0118
  41
0.0118
  0
VERTEX
  8
Top
  10
0.2244
  20
0.4803
  42
0
  0
VERTEX
  8
Top
  10
0.0591
  20
0.4803
  42
0
  0
SEQEND
  0
POLYLINE
  8
Top
  6
CONTINUOUS
  66
1
  70
0
  40
0.0059
  41
0.0059
  0
VERTEX
  8
Top
  10
0.2215
  20
0.4803
  42
1
  0
VERTEX
  8
Top
  10
0.2274
  20
0.4803
  42
1
  0
VERTEX
  8
Top
  10
0.2215
  20
0.4803
  42
1
  0
SEQEND
  0
POLYLINE
  8
Top
  6
CONTINUOUS
  66
1
  70
0
  40
0.0059
  41
0.0059
  0
VERTEX
  8
Top
  10
0.0561
  20
0.4803
  42
1
  0
VERTEX
  8
Top
  10
0.062
  20
0.4803
  42
1
  0
VERTEX
  8
Top
  10
0.0561
  20
0.4803
  42
1
  0
SEQEND
  0
POLYLINE
  8
Top
  6
CONTINUOUS
  66
1
  70
0
  40
0.0118
  41
0.0118
  0
VERTEX
  8
Top
  10
0.0591
  20
0.4803
  42
0
  0
VERTEX
  8
Top
  10
0.0551
  20
0.4843
  42
0
  0
SEQEND
  0
POLYLINE
  8
Top
  6
CONTINUOUS
  66
1
  70
0
  40
0.0059
  41
0.0059
  0
VERTEX
  8
Top
  10
0.0561
  20
0.4803
  42
1
  0
VERTEX
  8
Top
  10
0.062
  20
0.4803
  42
1
  0
VERTEX
  8
Top
  10
0.0561
  20
0.4803
  42
1
  0
SEQEND
  0
POLYLINE
  8
Top
  6
CONTINUOUS
  66
1
  70
0
  40
0.0059
  41
0.0059
  0
VERTEX
  8
Top
  10
0.0522
  20
0.4843
  42
1
  0
VERTEX
  8
Top
  10
0.0581
  20
0.4843
  42
1
  0
VERTEX
  8
Top
  10
0.0522
  20
0.4843
  42
1
  0
SEQEND
  0
POLYLINE
  8
Bottom
  6
CONTINUOUS
  66
1
  70
0
  40
0.0591
  41
0.0591
  0
VERTEX
  8
Bottom
  10
0.6201
  20
0.5512
  42
1
  0
VERTEX
  8
Bottom
  10
0.561
  20
0.5512
  42
1
  0
VERTEX
  8
Bottom
  10
0.6201
  20
0.5512
  42
1
  0
SEQEND
  0
POLYLINE
  8
Bottom
  6
CONTINUOUS
  66
1
  70
0
  40
0.0591
  41
0.0591
  0
VERTEX
  8
Bottom
  10
0.6201
  20
0.1181
  42
1
  0
VERTEX
  8
Bottom
  10
0.561
  20
0.1181
  42
1
  0
VERTEX
  8
Bottom
  10
0.6201
  20
0.1181
  42
1
  0
SEQEND
  0
SOLID
  8
Bottom
  10
0.0217
  20
0.5177
  11
0.0886
  21
0.5177
  12
0.0217
  22
0.4508
  13
0.0886
  23
0.4508
  0
POLYLINE
  8
Bottom
  6
CONTINUOUS
  66
1
  70
0
  40
0.0335
  41
0.0335
  0
VERTEX
  8
Bottom
  10
0.0719
  20
0.3843
  42
1
  0
VERTEX
  8
Bottom
  10
0.0384
  20
0.3843
  42
1
  0
VERTEX
  8
Bottom
  10
0.0719
  20
0.3843
  42
1
  0
SEQEND
  0
POLYLINE
  8
Bottom
  6
CONTINUOUS
  66
1
  70
0
  40
0.0335
  41
0.0335
  0
VERTEX
  8
Bottom
  10
0.0719
  20
0.2843
  42
1
  0
VERTEX
  8
Bottom
  10
0.0384
  20
0.2843
  42
1
  0
VERTEX
  8
Bottom
  10
0.0719
  20
0.2843
  42
1
  0
SEQEND
  0
POLYLINE
  8
Bottom
  6
CONTINUOUS
  66
1
  70
0
  40
0.0335
  41
0.0335
  0
VERTEX
  8
Bottom
  10
0.0719
  20
0.1843
  42
1
  0
VERTEX
  8
Bottom
  10
0.0384
  20
0.1843
  42
1
  0
VERTEX
  8
Bottom
  10
0.0719
  20
0.1843
  42
1
  0
SEQEND
  0
POLYLINE
  8
Bottom
  6
CONTINUOUS
  66
1
  70
0
  40
0.0098
  41
0.0098
  0
VERTEX
  8
Bottom
  10
0.2018
  20
0.2402
  42
1
  0
VERTEX
  8
Bottom
  10
0.1919
  20
0.2402
  42
1
  0
VERTEX
  8
Bottom
  10
0.2018
  20
0.2402
  42
1
  0
SEQEND
  0
POLYLINE
  8
Bottom
  6
CONTINUOUS
  66
1
  70
0
  40
0.0118
  41
0.0118
  0
VERTEX
  8
Bottom
  10
0.1969
  20
0.2402
  42
0
  0
VERTEX
  8
Bottom
  10
0.1969
  20
0.2425
  42
0
  0
SEQEND
  0
POLYLINE
  8
Bottom
  6
CONTINUOUS
  66
1
  70
0
  40
0.0059
  41
0.0059
  0
VERTEX
  8
Bottom
  10
0.1939
  20
0.2402
  42
1
  0
VERTEX
  8
Bottom
  10
0.1998
  20
0.2402
  42
1
  0
VERTEX
  8
Bottom
  10
0.1939
  20
0.2402
  42
1
  0
SEQEND
  0
POLYLINE
  8
Bottom
  6
CONTINUOUS
  66
1
  70
0
  40
0.0059
  41
0.0059
  0
VERTEX
  8
Bottom
  10
0.1939
  20
0.2425
  42
1
  0
VERTEX
  8
Bottom
  10
0.1998
  20
0.2425
  42
1
  0
VERTEX
  8
Bottom
  10
0.1939
  20
0.2425
  42
1
  0
SEQEND
  0
POLYLINE
  8
Bottom
  6
CONTINUOUS
  66
1
  70
0
  40
0.0118
  41
0.0118
  0
VERTEX
  8
Bottom
  10
0.1969
  20
0.2425
  42
0
  0
VERTEX
  8
Bottom
  10
0.0551
  20
0.3843
  42
0
  0
SEQEND
  0
POLYLINE
  8
Bottom
  6
CONTINUOUS
  66
1
  70
0
  40
0.0059
  41
0.0059
  0
VERTEX
  8
Bottom
  10
0.1939
  20
0.2425
  42
1
  0
VERTEX
  8
Bottom
  10
0.1998
  20
0.2425
  42
1
  0
VERTEX
  8
Bottom
  10
0.1939
  20
0.2425
  42
1
  0
SEQEND
  0
POLYLINE
  8
Bottom
  6
CONTINUOUS
  66
1
  70
0
  40
0.0059
  41
0.0059
  0
VERTEX
  8
Bottom
  10
0.0522
  20
0.3843
  42
1
  0
VERTEX
  8
Bottom
  10
0.0581
  20
0.3843
  42
1
  0
VERTEX
  8
Bottom
  10
0.0522
  20
0.3843
  42
1
  0
SEQEND
  0
CIRCLE
  8
Drill_Top
  10
0.5906
  20
0.5512
  40
0.0591
  0
CIRCLE
  8
Drill_Top
  10
0.5906
  20
0.1181
  40
0.0591
  0
CIRCLE
  8
Drill_Top
  10
0.0551
  20
0.4843
  40
0.0217
  0
CIRCLE
  8
Drill_Top
  10
0.0551
  20
0.3843
  40
0.0217
  0
CIRCLE
  8
Drill_Top
  10
0.0551
  20
0.2843
  40
0.0217
  0
CIRCLE
  8
Drill_Top
  10
0.0551
  20
0.1843
  40
0.0217
  0
CIRCLE
  8
Drill_Top
  10
0.1969
  20
0.2402
  40
0.0059
  0
CIRCLE
  8
Drill_Bottom
  10
0.5906
  20
0.5512
  40
0.0591
  0
CIRCLE
  8
Drill_Bottom
  10
0.5906
  20
0.1181
  40
0.0591
  0
CIRCLE
  8
Drill_Bottom
  10
0.0551
  20
0.4843
  40
0.0217
  0
CIRCLE
  8
Drill_Bottom
  10
0.0551
  20
0.3843
  40
0.0217
  0
CIRCLE
  8
Drill_Bottom
  10
0.0551
  20
0.2843
  40
0.0217
  0
CIRCLE
  8
Drill_Bottom
  10
0.0551
  20
0.1843
  40
0.0217
  0
CIRCLE
  8
Drill_Bottom
  10
0.1969
  20
0.2402
  40
0.0059
  0
POLYLINE
  8
Bottom_Mask
  6
CONTINUOUS
  66
1
  70
0
  40
0.063
  41
0.063
  0
VERTEX
  8
Bottom_Mask
  10
0.622
  20
0.5512
  42
1
  0
VERTEX
  8
Bottom_Mask
  10
0.5591
  20
0.5512
  42
1
  0
VERTEX
  8
Bottom_Mask
  10
0.622
  20
0.5512
  42
1
  0
SEQEND
  0
POLYLINE
  8
Bottom_Mask
  6
CONTINUOUS
  66
1
  70
0
  40
0.063
  41
0.063
  0
VERTEX
  8
Bottom_Mask
  10
0.5591
  20
0.5512
  42
1
  0
VERTEX
  8
Bottom_Mask
  10
0.622
  20
0.5512
  42
1
  0
VERTEX
  8
Bottom_Mask
  10
0.5591
  20
0.5512
  42
1
  0
SEQEND
  0
POLYLINE
  8
Bottom_Mask
  6
CONTINUOUS
  66
1
  70
0
  40
0.063
  41
0.063
  0
VERTEX
  8
Bottom_Mask
  10
0.622
  20
0.1181
  42
1
  0
VERTEX
  8
Bottom_Mask
  10
0.5591
  20
0.1181
  42
1
  0
VERTEX
  8
Bottom_Mask
  10
0.622
  20
0.1181
  42
1
  0
SEQEND
  0
POLYLINE
  8
Bottom_Mask
  6
CONTINUOUS
  66
1
  70
0
  40
0.063
  41
0.063
  0
VERTEX
  8
Bottom_Mask
  10
0.5591
  20
0.1181
  42
1
  0
VERTEX
  8
Bottom_Mask
  10
0.622
  20
0.1181
  42
1
  0
VERTEX
  8
Bottom_Mask
  10
0.5591
  20
0.1181
  42
1
  0
SEQEND
  0
SOLID
  8
Bottom_Mask
  10
0.0177
  20
0.5217
  11
0.0925
  21
0.5217
  12
0.0177
  22
0.4469
  13
0.0925
  23
0.4469
  0
POLYLINE
  8
Bottom_Mask
  6
CONTINUOUS
  66
1
  70
0
  40
0.0374
  41
0.0374
  0
VERTEX
  8
Bottom_Mask
  10
0.0738
  20
0.3843
  42
1
  0
VERTEX
  8
Bottom_Mask
  10
0.0364
  20
0.3843
  42
1
  0
VERTEX
  8
Bottom_Mask
  10
0.0738
  20
0.3843
  42
1
  0
SEQEND
  0
POLYLINE
  8
Bottom_Mask
  6
CONTINUOUS
  66
1
  70
0
  40
0.0374
  41
0.0374
  0
VERTEX
  8
Bottom_Mask
  10
0.0364
  20
0.3843
  42
1
  0
VERTEX
  8
Bottom_Mask
  10
0.0738
  20
0.3843
  42
1
  0
VERTEX
  8
Bottom_Mask
  10
0.0364
  20
0.3843
  42
1
  0
SEQEND
  0
POLYLINE
  8
Bottom_Mask
  6
CONTINUOUS
  66
1
  70
0
  40
0.0374
  41
0.0374
  0
VERTEX
  8
Bottom_Mask
  10
0.0738
  20
0.2843
  42
1
  0
VERTEX
  8
Bottom_Mask
  10
0.0364
  20
0.2843
  42
1
  0
VERTEX
  8
Bottom_Mask
  10
0.0738
  20
0.2843
  42
1
  0
SEQEND
  0
POLYLINE
  8
Bottom_Mask
  6
CONTINUOUS
  66
1
  70
0
  40
0.0374
  41
0.0374
  0
VERTEX
  8
Bottom_Mask
  10
0.0364
  20
0.2843
  42
1
  0
VERTEX
  8
Bottom_Mask
  10
0.0738
  20
0.2843
  42
1
  0
VERTEX
  8
Bottom_Mask
  10
0.0364
  20
0.2843
  42
1
  0
SEQEND
  0
POLYLINE
  8
Bottom_Mask
  6
CONTINUOUS
  66
1
  70
0
  40
0.0374
  41
0.0374
  0
VERTEX
  8
Bottom_Mask
  10
0.0738
  20
0.1843
  42
1
  0
VERTEX
  8
Bottom_Mask
  10
0.0364
  20
0.1843
  42
1
  0
VERTEX
  8
Bottom_Mask
  10
0.0738
  20
0.1843
  42
1
  0
SEQEND
  0
POLYLINE
  8
Bottom_Mask
  6
CONTINUOUS
  66
1
  70
0
  40
0.0374
  41
0.0374
  0
VERTEX
  8
Bottom_Mask
  10
0.0364
  20
0.1843
  42
1
  0
VERTEX
  8
Bottom_Mask
  10
0.0738
  20
0.1843
  42
1
  0
VERTEX
  8
Bottom_Mask
  10
0.0364
  20
0.1843
  42
1
  0
SEQEND
  0
POLYLINE
  8
Bottom_Silk
  6
CONTINUOUS
  66
1
  70
0
  40
0.0062
  41
0.0062
  0
VERTEX
  8
Bottom_Silk
  10
0.2245
  20
0.508
  42
0
  0
VERTEX
  8
Bottom_Silk
  10
0.2092
  20
0.4678
  42
0
  0
VERTEX
  8
Bottom_Silk
  10
0.1939
  20
0.508
  42
0
  0
SEQEND
  0
POLYLINE
  8
Bottom_Silk
  6
CONTINUOUS
  66
1
  70
0
  40
0.0031
  41
0.0031
  0
VERTEX
  8
Bottom_Silk
  10
0.2229
  20
0.508
  42
1
  0
VERTEX
  8
Bottom_Silk
  10
0.226
  20
0.508
  42
1
  0
VERTEX
  8
Bottom_Silk
  10
0.2229
  20
0.508
  42
1
  0
SEQEND
  0
POLYLINE
  8
Bottom_Silk
  6
CONTINUOUS
  66
1
  70
0
  40
0.0031
  41
0.0031
  0
VERTEX
  8
Bottom_Silk
  10
0.1924
  20
0.508
  42
1
  0
VERTEX
  8
Bottom_Silk
  10
0.1954
  20
0.508
  42
1
  0
VERTEX
  8
Bottom_Silk
  10
0.1924
  20
0.508
  42
1
  0
SEQEND
  0
POLYLINE
  8
Bottom_Silk
  6
CONTINUOUS
  66
1
  70
0
  40
0.0062
  41
0.0062
  0
VERTEX
  8
Bottom_Silk
  10
0.1528
  20
0.4985
  42
0
  0
VERTEX
  8
Bottom_Silk
  10
0.1547
  20
0.5023
  42
0
  0
VERTEX
  8
Bottom_Silk
  10
0.1586
  20
0.5061
  42
0
  0
VERTEX
  8
Bottom_Silk
  10
0.1624
  20
0.508
  42
0
  0
VERTEX
  8
Bottom_Silk
  10
0.17
  20
0.508
  42
0
  0
VERTEX
  8
Bottom_Silk
  10
0.1739
  20
0.5061
  42
0
  0
VERTEX
  8
Bottom_Silk
  10
0.1777
  20
0.5023
  42
0
  0
VERTEX
  8
Bottom_Silk
  10
0.1796
  20
0.4985
  42
0
  0
VERTEX
  8
Bottom_Silk
  10
0.1815
  20
0.4927
  42
0
  0
VERTEX
  8
Bottom_Silk
  10
0.1815
  20
0.4831
  42
0
  0
VERTEX
  8
Bottom_Silk
  10
0.1796
  20
0.4774
  42
0
  0
VERTEX
  8
Bottom_Silk
  10
0.1777
  20
0.4736
  42
0
  0
VERTEX
  8
Bottom_Silk
  10
0.1739
  20
0.4698
  42
0
  0
VERTEX
  8
Bottom_Silk
  10
0.17
  20
0.4678
  42
0
  0
VERTEX
  8
Bottom_Silk
  10
0.1624
  20
0.4678
  42
0
  0
VERTEX
  8
Bottom_Silk
  10
0.1586
  20
0.4698
  42
0
  0
VERTEX
  8
Bottom_Silk
  10
0.1547
  20
0.4736
  42
0
  0
VERTEX
  8
Bottom_Silk
  10
0.1528
  20
0.4774
  42
0
  0
SEQEND
  0
POLYLINE
  8
Bottom_Silk
  6
CONTINUOUS
  66
1
  70
0
  40
0.0031
  41
0.0031
  0
VERTEX
  8
Bottom_Silk
  10
0.1513
  20
0.4985
  42
1
  0
VERTEX
  8
Bottom_Silk
  10
0.1544
  20
0.4985
  42
1
  0
VERTEX
  8
Bottom_Silk
  10
0.1513
  20
0.4985
  42
1
  0
SEQEND
  0
POLYLINE
  8
Bottom_Silk
  6
CONTINUOUS
  66
1
  70
0
  40
0.0031
  41
0.0031
  0
VERTEX
  8
Bottom_Silk
  10
0.1513
  20
0.4774
  42
1
  0
VERTEX
  8
Bottom_Silk
  10
0.1544
  20
0.4774
  42
1
  0
VERTEX
  8
Bottom_Silk
  10
0.1513
  20
0.4774
  42
1
  0
SEQEND
  0
POLYLINE
  8
Bottom_Silk
  6
CONTINUOUS
  66
1
  70
0
  40
0.0062
  41
0.0062
  0
VERTEX
  8
Bottom_Silk
  10
0.1118
  20
0.4985
  42
0
  0
VERTEX
  8
Bottom_Silk
  10
0.1137
  20
0.5023
  42
0
  0
VERTEX
  8
Bottom_Silk
  10
0.1175
  20
0.5061
  42
0
  0
VERTEX
  8
Bottom_Silk
  10
0.1214
  20
0.508
  42
0
  0
VERTEX
  8
Bottom_Silk
  10
0.129
  20
0.508
  42
0
  0
VERTEX
  8
Bottom_Silk
  10
0.1328
  20
0.5061
  42
0
  0
VERTEX
  8
Bottom_Silk
  10
0.1366
  20
0.5023
  42
0
  0
VERTEX
  8
Bottom_Silk
  10
0.1386
  20
0.4985
  42
0
  0
VERTEX
  8
Bottom_Silk
  10
0.1405
  20
0.4927
  42
0
  0
VERTEX
  8
Bottom_Silk
  10
0.1405
  20
0.4831
  42
0
  0
VERTEX
  8
Bottom_Silk
  10
0.1386
  20
0.4774
  42
0
  0
VERTEX
  8
Bottom_Silk
  10
0.1366
  20
0.4736
  42
0
  0
VERTEX
  8
Bottom_Silk
  10
0.1328
  20
0.4698
  42
0
  0
VERTEX
  8
Bottom_Silk
  10
0.129
  20
0.4678
  42
0
  0
VERTEX
  8
Bottom_Silk
  10
0.1214
  20
0.4678
  42
0
  0
VERTEX
  8
Bottom_Silk
  10
0.1175
  20
0.4698
  42
0
  0
VERTEX
  8
Bottom_Silk
  10
0.1137
  20
0.4736
  42
0
  0
VERTEX
  8
Bottom_Silk
  10
0.1118
  20
0.4774
  42
0
  0
SEQEND
  0
POLYLINE
  8
Bottom_Silk
  6
CONTINUOUS
  66
1
  70
0
  40
0.0031
  41
0.0031
  0
VERTEX
  8
Bottom_Silk
  10
0.1103
  20
0.4985
  42
1
  0
VERTEX
  8
Bottom_Silk
  10
0.1133
  20
0.4985
  42
1
  0
VERTEX
  8
Bottom_Silk
  10
0.1103
  20
0.4985
  42
1
  0
SEQEND
  0
POLYLINE
  8
Bottom_Silk
  6
CONTINUOUS
  66
1
  70
0
  40
0.0031
  41
0.0031
  0
VERTEX
  8
Bottom_Silk
  10
0.1103
  20
0.4774
  42
1
  0
VERTEX
  8
Bottom_Silk
  10
0.1133
  20
0.4774
  42
1
  0
VERTEX
  8
Bottom_Silk
  10
0.1103
  20
0.4774
  42
1
  0
SEQEND
  0
POLYLINE
  8
Bottom_Silk
  6
CONTINUOUS
  66
1
  70
0
  40
0.0062
  41
0.0062
  0
VERTEX
  8
Bottom_Silk
  10
0.1928
  20
0.3934
  42
0
  0
VERTEX
  8
Bottom_Silk
  10
0.1947
  20
0.3972
  42
0
  0
VERTEX
  8
Bottom_Silk
  10
0.1986
  20
0.401
  42
0
  0
VERTEX
  8
Bottom_Silk
  10
0.2024
  20
0.4029
  42
0
  0
VERTEX
  8
Bottom_Silk
  10
0.21
  20
0.4029
  42
0
  0
VERTEX
  8
Bottom_Silk
  10
0.2139
  20
0.401
  42
0
  0
VERTEX
  8
Bottom_Silk
  10
0.2177
  20
0.3972
  42
0
  0
VERTEX
  8
Bottom_Silk
  10
0.2196
  20
0.3934
  42
0
  0
VERTEX
  8
Bottom_Silk
  10
0.2215
  20
0.3876
  42
0
  0
VERTEX
  8
Bottom_Silk
  10
0.2215
  20
0.378
  42
0
  0
VERTEX
  8
Bottom_Silk
  10
0.2196
  20
0.3723
  42
0
  0
VERTEX
  8
Bottom_Silk
  10
0.2177
  20
0.3685
  42
0
  0
VERTEX
  8
Bottom_Silk
  10
0.2139
  20
0.3647
  42
0
  0
VERTEX
  8
Bottom_Silk
  10
0.21
  20
0.3627
  42
0
  0
VERTEX
  8
Bottom_Silk
  10
0.2024
  20
0.3627
  42
0
  0
VERTEX
  8
Bottom_Silk
  10
0.1986
  20
0.3647
  42
0
  0
VERTEX
  8
Bottom_Silk
  10
0.1947
  20
0.3685
  42
0
  0
VERTEX
  8
Bottom_Silk
  10
0.1928
  20
0.3723
  42
0
  0
VERTEX
  8
Bottom_Silk
  10
0.1928
  20
0.378
  42
0
  0
VERTEX
  8
Bottom_Silk
  10
0.2024
  20
0.378
  42
0
  0
SEQEND
  0
POLYLINE
  8
Bottom_Silk
  6
CONTINUOUS
  66
1
  70
0
  40
0.0031
  41
0.0031
  0
VERTEX
  8
Bottom_Silk
  10
0.1913
  20
0.3934
  42
1
  0
VERTEX
  8
Bottom_Silk
  10
0.1944
  20
0.3934
  42
1
  0
VERTEX
  8
Bottom_Silk
  10
0.1913
  20
0.3934
  42
1
  0
SEQEND
  0
POLYLINE
  8
Bottom_Silk
  6
CONTINUOUS
  66
1
  70
0
  40
0.0031
  41
0.0031
  0
VERTEX
  8
Bottom_Silk
  10
0.2008
  20
0.378
  42
1
  0
VERTEX
  8
Bottom_Silk
  10
0.2039
  20
0.378
  42
1
  0
VERTEX
  8
Bottom_Silk
  10
0.2008
  20
0.378
  42
1
  0
SEQEND
  0
POLYLINE
  8
Bottom_Silk
  6
CONTINUOUS
  66
1
  70
0
  40
0.0062
  41
0.0062
  0
VERTEX
  8
Bottom_Silk
  10
0.1537
  20
0.4029
  42
0
  0
VERTEX
  8
Bottom_Silk
  10
0.1537
  20
0.3627
  42
0
  0
VERTEX
  8
Bottom_Silk
  10
0.1805
  20
0.4029
  42
0
  0
VERTEX
  8
Bottom_Silk
  10
0.1805
  20
0.3627
  42
0
  0
SEQEND
  0
POLYLINE
  8
Bottom_Silk
  6
CONTINUOUS
  66
1
  70
0
  40
0.0031
  41
0.0031
  0
VERTEX
  8
Bottom_Silk
  10
0.1521
  20
0.4029
  42
1
  0
VERTEX
  8
Bottom_Silk
  10
0.1552
  20
0.4029
  42
1
  0
VERTEX
  8
Bottom_Silk
  10
0.1521
  20
0.4029
  42
1
  0
SEQEND
  0
POLYLINE
  8
Bottom_Silk
  6
CONTINUOUS
  66
1
  70
0
  40
0.0031
  41
0.0031
  0
VERTEX
  8
Bottom_Silk
  10
0.1789
  20
0.3627
  42
1
  0
VERTEX
  8
Bottom_Silk
  10
0.182
  20
0.3627
  42
1
  0
VERTEX
  8
Bottom_Silk
  10
0.1789
  20
0.3627
  42
1
  0
SEQEND
  0
POLYLINE
  8
Bottom_Silk
  6
CONTINUOUS
  66
1
  70
0
  40
0.0062
  41
0.0062
  0
VERTEX
  8
Bottom_Silk
  10
0.1413
  20
0.4029
  42
0
  0
VERTEX
  8
Bottom_Silk
  10
0.1413
  20
0.3627
  42
0
  0
VERTEX
  8
Bottom_Silk
  10
0.1279
  20
0.3627
  42
0
  0
VERTEX
  8
Bottom_Silk
  10
0.1222
  20
0.3647
  42
0
  0
VERTEX
  8
Bottom_Silk
  10
0.1183
  20
0.3685
  42
0
  0
VERTEX
  8
Bottom_Silk
  10
0.1164
  20
0.3723
  42
0
  0
VERTEX
  8
Bottom_Silk
  10
0.1145
  20
0.378
  42
0
  0
VERTEX
  8
Bottom_Silk
  10
0.1145
  20
0.3876
  42
0
  0
VERTEX
  8
Bottom_Silk
  10
0.1164
  20
0.3934
  42
0
  0
VERTEX
  8
Bottom_Silk
  10
0.1183
  20
0.3972
  42
0
  0
VERTEX
  8
Bottom_Silk
  10
0.1222
  20
0.401
  42
0
  0
VERTEX
  8
Bottom_Silk
  10
0.1279
  20
0.4029
  42
0
  0
VERTEX
  8
Bottom_Silk
  10
0.1413
  20
0.4029
  42
0
  0
SEQEND
  0
POLYLINE
  8
Bottom_Silk
  6
CONTINUOUS
  66
1
  70
0
  40
0.0031
  41
0.0031
  0
VERTEX
  8
Bottom_Silk
  10
0.1398
  20
0.4029
  42
1
  0
VERTEX
  8
Bottom_Silk
  10
0.1429
  20
0.4029
  42
1
  0
VERTEX
  8
Bottom_Silk
  10
0.1398
  20
0.4029
  42
1
  0
SEQEND
  0
POLYLINE
  8
Bottom_Silk
  6
CONTINUOUS
  66
1
  70
0
  40
0.0062
  41
0.0062
  0
VERTEX
  8
Bottom_Silk
  10
0.1987
  20
0.2984
  42
0
  0
VERTEX
  8
Bottom_Silk
  10
0.2025
  20
0.3022
  42
0
  0
VERTEX
  8
Bottom_Silk
  10
0.2082
  20
0.3041
  42
0
  0
VERTEX
  8
Bottom_Silk
  10
0.2159
  20
0.3041
  42
0
  0
VERTEX
  8
Bottom_Silk
  10
0.2216
  20
0.3022
  42
0
  0
VERTEX
  8
Bottom_Silk
  10
0.2255
  20
0.2984
  42
0
  0
VERTEX
  8
Bottom_Silk
  10
0.2255
  20
0.2946
  42
0
  0
VERTEX
  8
Bottom_Silk
  10
0.2235
  20
0.2907
  42
0
  0
VERTEX
  8
Bottom_Silk
  10
0.2216
  20
0.2888
  42
0
  0
VERTEX
  8
Bottom_Silk
  10
0.2178
  20
0.2869
  42
0
  0
VERTEX
  8
Bottom_Silk
  10
0.2063
  20
0.2831
  42
0
  0
VERTEX
  8
Bottom_Silk
  10
0.2025
  20
0.2812
  42
0
  0
VERTEX
  8
Bottom_Silk
  10
0.2006
  20
0.2792
  42
0
  0
VERTEX
  8
Bottom_Silk
  10
0.1987
  20
0.2754
  42
0
  0
VERTEX
  8
Bottom_Silk
  10
0.1987
  20
0.2697
  42
0
  0
VERTEX
  8
Bottom_Silk
  10
0.2025
  20
0.2659
  42
0
  0
VERTEX
  8
Bottom_Silk
  10
0.2082
  20
0.2639
  42
0
  0
VERTEX
  8
Bottom_Silk
  10
0.2159
  20
0.2639
  42
0
  0
VERTEX
  8
Bottom_Silk
  10
0.2216
  20
0.2659
  42
0
  0
VERTEX
  8
Bottom_Silk
  10
0.2255
  20
0.2697
  42
0
  0
SEQEND
  0
POLYLINE
  8
Bottom_Silk
  6
CONTINUOUS
  66
1
  70
0
  40
0.0031
  41
0.0031
  0
VERTEX
  8
Bottom_Silk
  10
0.1971
  20
0.2984
  42
1
  0
VERTEX
  8
Bottom_Silk
  10
0.2002
  20
0.2984
  42
1
  0
VERTEX
  8
Bottom_Silk
  10
0.1971
  20
0.2984
  42
1
  0
SEQEND
  0
POLYLINE
  8
Bottom_Silk
  6
CONTINUOUS
  66
1
  70
0
  40
0.0031
  41
0.0031
  0
VERTEX
  8
Bottom_Silk
  10
0.2239
  20
0.2697
  42
1
  0
VERTEX
  8
Bottom_Silk
  10
0.227
  20
0.2697
  42
1
  0
VERTEX
  8
Bottom_Silk
  10
0.2239
  20
0.2697
  42
1
  0
SEQEND
  0
POLYLINE
  8
Bottom_Silk
  6
CONTINUOUS
  66
1
  70
0
  40
0.0062
  41
0.0062
  0
VERTEX
  8
Bottom_Silk
  10
0.1576
  20
0.2946
  42
0
  0
VERTEX
  8
Bottom_Silk
  10
0.1595
  20
0.2984
  42
0
  0
VERTEX
  8
Bottom_Silk
  10
0.1634
  20
0.3022
  42
0
  0
VERTEX
  8
Bottom_Silk
  10
0.1672
  20
0.3041
  42
0
  0
VERTEX
  8
Bottom_Silk
  10
0.1748
  20
0.3041
  42
0
  0
VERTEX
  8
Bottom_Silk
  10
0.1787
  20
0.3022
  42
0
  0
VERTEX
  8
Bottom_Silk
  10
0.1825
  20
0.2984
  42
0
  0
VERTEX
  8
Bottom_Silk
  10
0.1844
  20
0.2946
  42
0
  0
VERTEX
  8
Bottom_Silk
  10
0.1863
  20
0.2888
  42
0
  0
VERTEX
  8
Bottom_Silk
  10
0.1863
  20
0.2792
  42
0
  0
VERTEX
  8
Bottom_Silk
  10
0.1844
  20
0.2735
  42
0
  0
VERTEX
  8
Bottom_Silk
  10
0.1825
  20
0.2697
  42
0
  0
VERTEX
  8
Bottom_Silk
  10
0.1787
  20
0.2659
  42
0
  0
VERTEX
  8
Bottom_Silk
  10
0.1748
  20
0.2639
  42
0
  0
VERTEX
  8
Bottom_Silk
  10
0.1672
  20
0.2639
  42
0
  0
VERTEX
  8
Bottom_Silk
  10
0.1634
  20
0.2659
  42
0
  0
VERTEX
  8
Bottom_Silk
  10
0.1595
  20
0.2697
  42
0
  0
VERTEX
  8
Bottom_Silk
  10
0.1576
  20
0.2735
  42
0
  0
SEQEND
  0
POLYLINE
  8
Bottom_Silk
  6
CONTINUOUS
  66
1
  70
0
  40
0.0031
  41
0.0031
  0
VERTEX
  8
Bottom_Silk
  10
0.1561
  20
0.2946
  42
1
  0
VERTEX
  8
Bottom_Silk
  10
0.1592
  20
0.2946
  42
1
  0
VERTEX
  8
Bottom_Silk
  10
0.1561
  20
0.2946
  42
1
  0
SEQEND
  0
POLYLINE
  8
Bottom_Silk
  6
CONTINUOUS
  66
1
  70
0
  40
0.0031
  41
0.0031
  0
VERTEX
  8
Bottom_Silk
  10
0.1561
  20
0.2735
  42
1
  0
VERTEX
  8
Bottom_Silk
  10
0.1592
  20
0.2735
  42
1
  0
VERTEX
  8
Bottom_Silk
  10
0.1561
  20
0.2735
  42
1
  0
SEQEND
  0
POLYLINE
  8
Bottom_Silk
  6
CONTINUOUS
  66
1
  70
0
  40
0.0062
  41
0.0062
  0
VERTEX
  8
Bottom_Silk
  10
0.1453
  20
0.3041
  42
0
  0
VERTEX
  8
Bottom_Silk
  10
0.1453
  20
0.2639
  42
0
  0
SEQEND
  0
POLYLINE
  8
Bottom_Silk
  6
CONTINUOUS
  66
1
  70
0
  40
0.0031
  41
0.0031
  0
VERTEX
  8
Bottom_Silk
  10
0.1437
  20
0.3041
  42
1
  0
VERTEX
  8
Bottom_Silk
  10
0.1468
  20
0.3041
  42
1
  0
VERTEX
  8
Bottom_Silk
  10
0.1437
  20
0.3041
  42
1
  0
SEQEND
  0
POLYLINE
  8
Bottom_Silk
  6
CONTINUOUS
  66
1
  70
0
  40
0.0031
  41
0.0031
  0
VERTEX
  8
Bottom_Silk
  10
0.1437
  20
0.2639
  42
1
  0
VERTEX
  8
Bottom_Silk
  10
0.1468
  20
0.2639
  42
1
  0
VERTEX
  8
Bottom_Silk
  10
0.1437
  20
0.2639
  42
1
  0
SEQEND
  0
POLYLINE
  8
Bottom_Silk
  6
CONTINUOUS
  66
1
  70
0
  40
0.0062
  41
0.0062
  0
VERTEX
  8
Bottom_Silk
  10
0.1185
  20
0.3041
  42
0
  0
VERTEX
  8
Bottom_Silk
  10
0.1453
  20
0.2773
  42
0
  0
SEQEND
  0
POLYLINE
  8
Bottom_Silk
  6
CONTINUOUS
  66
1
  70
0
  40
0.0031
  41
0.0031
  0
VERTEX
  8
Bottom_Silk
  10
0.1169
  20
0.3041
  42
1
  0
VERTEX
  8
Bottom_Silk
  10
0.12
  20
0.3041
  42
1
  0
VERTEX
  8
Bottom_Silk
  10
0.1169
  20
0.3041
  42
1
  0
SEQEND
  0
POLYLINE
  8
Bottom_Silk
  6
CONTINUOUS
  66
1
  70
0
  40
0.0031
  41
0.0031
  0
VERTEX
  8
Bottom_Silk
  10
0.1437
  20
0.2773
  42
1
  0
VERTEX
  8
Bottom_Silk
  10
0.1468
  20
0.2773
  42
1
  0
VERTEX
  8
Bottom_Silk
  10
0.1437
  20
0.2773
  42
1
  0
SEQEND
  0
POLYLINE
  8
Bottom_Silk
  6
CONTINUOUS
  66
1
  70
0
  40
0.0062
  41
0.0062
  0
VERTEX
  8
Bottom_Silk
  10
0.1357
  20
0.2869
  42
0
  0
VERTEX
  8
Bottom_Silk
  10
0.1185
  20
0.2639
  42
0
  0
SEQEND
  0
POLYLINE
  8
Bottom_Silk
  6
CONTINUOUS
  66
1
  70
0
  40
0.0031
  41
0.0031
  0
VERTEX
  8
Bottom_Silk
  10
0.1342
  20
0.2869
  42
1
  0
VERTEX
  8
Bottom_Silk
  10
0.1373
  20
0.2869
  42
1
  0
VERTEX
  8
Bottom_Silk
  10
0.1342
  20
0.2869
  42
1
  0
SEQEND
  0
POLYLINE
  8
Bottom_Silk
  6
CONTINUOUS
  66
1
  70
0
  40
0.0031
  41
0.0031
  0
VERTEX
  8
Bottom_Silk
  10
0.1169
  20
0.2639
  42
1
  0
VERTEX
  8
Bottom_Silk
  10
0.12
  20
0.2639
  42
1
  0
VERTEX
  8
Bottom_Silk
  10
0.1169
  20
0.2639
  42
1
  0
SEQEND
  0
POLYLINE
  8
Bottom_Silk
  6
CONTINUOUS
  66
1
  70
0
  40
0.0062
  41
0.0062
  0
VERTEX
  8
Bottom_Silk
  10
0.2716
  20
0.2108
  42
0
  0
VERTEX
  8
Bottom_Silk
  10
0.2716
  20
0.1706
  42
0
  0
VERTEX
  8
Bottom_Silk
  10
0.2582
  20
0.1706
  42
0
  0
VERTEX
  8
Bottom_Silk
  10
0.2524
  20
0.1725
  42
0
  0
VERTEX
  8
Bottom_Silk
  10
0.2486
  20
0.1763
  42
0
  0
VERTEX
  8
Bottom_Silk
  10
0.2467
  20
0.1802
  42
0
  0
VERTEX
  8
Bottom_Silk
  10
0.2448
  20
0.1859
  42
0
  0
VERTEX
  8
Bottom_Silk
  10
0.2448
  20
0.1955
  42
0
  0
VERTEX
  8
Bottom_Silk
  10
0.2467
  20
0.2012
  42
0
  0
VERTEX
  8
Bottom_Silk
  10
0.2486
  20
0.205
  42
0
  0
VERTEX
  8
Bottom_Silk
  10
0.2524
  20
0.2089
  42
0
  0
VERTEX
  8
Bottom_Silk
  10
0.2582
  20
0.2108
  42
0
  0
VERTEX
  8
Bottom_Silk
  10
0.2716
  20
0.2108
  42
0
  0
SEQEND
  0
POLYLINE
  8
Bottom_Silk
  6
CONTINUOUS
  66
1
  70
0
  40
0.0031
  41
0.0031
  0
VERTEX
  8
Bottom_Silk
  10
0.27
  20
0.2108
  42
1
  0
VERTEX
  8
Bottom_Silk
  10
0.2731
  20
0.2108
  42
1
  0
VERTEX
  8
Bottom_Silk
  10
0.27
  20
0.2108
  42
1
  0
SEQEND
  0
POLYLINE
  8
Bottom_Silk
  6
CONTINUOUS
  66
1
  70
0
  40
0.0062
  41
0.0062
  0
VERTEX
  8
Bottom_Silk
  10
0.2018
  20
0.1706
  42
0
  0
VERTEX
  8
Bottom_Silk
  10
0.2171
  20
0.2108
  42
0
  0
VERTEX
  8
Bottom_Silk
  10
0.2324
  20
0.1706
  42
0
  0
SEQEND
  0
POLYLINE
  8
Bottom_Silk
  6
CONTINUOUS
  66
1
  70
0
  40
0.0031
  41
0.0031
  0
VERTEX
  8
Bottom_Silk
  10
0.2002
  20
0.1706
  42
1
  0
VERTEX
  8
Bottom_Silk
  10
0.2033
  20
0.1706
  42
1
  0
VERTEX
  8
Bottom_Silk
  10
0.2002
  20
0.1706
  42
1
  0
SEQEND
  0
POLYLINE
  8
Bottom_Silk
  6
CONTINUOUS
  66
1
  70
0
  40
0.0031
  41
0.0031
  0
VERTEX
  8
Bottom_Silk
  10
0.2309
  20
0.1706
  42
1
  0
VERTEX
  8
Bottom_Silk
  10
0.234
  20
0.1706
  42
1
  0
VERTEX
  8
Bottom_Silk
  10
0.2309
  20
0.1706
  42
1
  0
SEQEND
  0
POLYLINE
  8
Bottom_Silk
  6
CONTINUOUS
  66
1
  70
0
  40
0.0062
  41
0.0062
  0
VERTEX
  8
Bottom_Silk
  10
0.2267
  20
0.184
  42
0
  0
VERTEX
  8
Bottom_Silk
  10
0.2075
  20
0.184
  42
0
  0
SEQEND
  0
POLYLINE
  8
Bottom_Silk
  6
CONTINUOUS
  66
1
  70
0
  40
0.0031
  41
0.0031
  0
VERTEX
  8
Bottom_Silk
  10
0.2251
  20
0.184
  42
1
  0
VERTEX
  8
Bottom_Silk
  10
0.2282
  20
0.184
  42
1
  0
VERTEX
  8
Bottom_Silk
  10
0.2251
  20
0.184
  42
1
  0
SEQEND
  0
POLYLINE
  8
Bottom_Silk
  6
CONTINUOUS
  66
1
  70
0
  40
0.0031
  41
0.0031
  0
VERTEX
  8
Bottom_Silk
  10
0.206
  20
0.184
  42
1
  0
VERTEX
  8
Bottom_Silk
  10
0.2091
  20
0.184
  42
1
  0
VERTEX
  8
Bottom_Silk
  10
0.206
  20
0.184
  42
1
  0
SEQEND
  0
POLYLINE
  8
Bottom_Silk
  6
CONTINUOUS
  66
1
  70
0
  40
0.0062
  41
0.0062
  0
VERTEX
  8
Bottom_Silk
  10
0.176
  20
0.2108
  42
0
  0
VERTEX
  8
Bottom_Silk
  10
0.176
  20
0.1706
  42
0
  0
SEQEND
  0
POLYLINE
  8
Bottom_Silk
  6
CONTINUOUS
  66
1
  70
0
  40
0.0031
  41
0.0031
  0
VERTEX
  8
Bottom_Silk
  10
0.1745
  20
0.2108
  42
1
  0
VERTEX
  8
Bottom_Silk
  10
0.1776
  20
0.2108
  42
1
  0
VERTEX
  8
Bottom_Silk
  10
0.1745
  20
0.2108
  42
1
  0
SEQEND
  0
POLYLINE
  8
Bottom_Silk
  6
CONTINUOUS
  66
1
  70
0
  40
0.0031
  41
0.0031
  0
VERTEX
  8
Bottom_Silk
  10
0.1745
  20
0.1706
  42
1
  0
VERTEX
  8
Bottom_Silk
  10
0.1776
  20
0.1706
  42
1
  0
VERTEX
  8
Bottom_Silk
  10
0.1745
  20
0.1706
  42
1
  0
SEQEND
  0
POLYLINE
  8
Bottom_Silk
  6
CONTINUOUS
  66
1
  70
0
  40
0.0062
  41
0.0062
  0
VERTEX
  8
Bottom_Silk
  10
0.1894
  20
0.2108
  42
0
  0
VERTEX
  8
Bottom_Silk
  10
0.1626
  20
0.2108
  42
0
  0
SEQEND
  0
POLYLINE
  8
Bottom_Silk
  6
CONTINUOUS
  66
1
  70
0
  40
0.0031
  41
0.0031
  0
VERTEX
  8
Bottom_Silk
  10
0.1879
  20
0.2108
  42
1
  0
VERTEX
  8
Bottom_Silk
  10
0.191
  20
0.2108
  42
1
  0
VERTEX
  8
Bottom_Silk
  10
0.1879
  20
0.2108
  42
1
  0
SEQEND
  0
POLYLINE
  8
Bottom_Silk
  6
CONTINUOUS
  66
1
  70
0
  40
0.0031
  41
0.0031
  0
VERTEX
  8
Bottom_Silk
  10
0.1611
  20
0.2108
  42
1
  0
VERTEX
  8
Bottom_Silk
  10
0.1642
  20
0.2108
  42
1
  0
VERTEX
  8
Bottom_Silk
  10
0.1611
  20
0.2108
  42
1
  0
SEQEND
  0
POLYLINE
  8
Bottom_Silk
  6
CONTINUOUS
  66
1
  70
0
  40
0.0062
  41
0.0062
  0
VERTEX
  8
Bottom_Silk
  10
0.1196
  20
0.1706
  42
0
  0
VERTEX
  8
Bottom_Silk
  10
0.135
  20
0.2108
  42
0
  0
VERTEX
  8
Bottom_Silk
  10
0.1503
  20
0.1706
  42
0
  0
SEQEND
  0
POLYLINE
  8
Bottom_Silk
  6
CONTINUOUS
  66
1
  70
0
  40
0.0031
  41
0.0031
  0
VERTEX
  8
Bottom_Silk
  10
0.1181
  20
0.1706
  42
1
  0
VERTEX
  8
Bottom_Silk
  10
0.1212
  20
0.1706
  42
1
  0
VERTEX
  8
Bottom_Silk
  10
0.1181
  20
0.1706
  42
1
  0
SEQEND
  0
POLYLINE
  8
Bottom_Silk
  6
CONTINUOUS
  66
1
  70
0
  40
0.0031
  41
0.0031
  0
VERTEX
  8
Bottom_Silk
  10
0.1487
  20
0.1706
  42
1
  0
VERTEX
  8
Bottom_Silk
  10
0.1518
  20
0.1706
  42
1
  0
VERTEX
  8
Bottom_Silk
  10
0.1487
  20
0.1706
  42
1
  0
SEQEND
  0
POLYLINE
  8
Bottom_Silk
  6
CONTINUOUS
  66
1
  70
0
  40
0.0062
  41
0.0062
  0
VERTEX
  8
Bottom_Silk
  10
0.1445
  20
0.184
  42
0
  0
VERTEX
  8
Bottom_Silk
  10
0.1254
  20
0.184
  42
0
  0
SEQEND
  0
POLYLINE
  8
Bottom_Silk
  6
CONTINUOUS
  66
1
  70
0
  40
0.0031
  41
0.0031
  0
VERTEX
  8
Bottom_Silk
  10
0.143
  20
0.184
  42
1
  0
VERTEX
  8
Bottom_Silk
  10
0.1461
  20
0.184
  42
1
  0
VERTEX
  8
Bottom_Silk
  10
0.143
  20
0.184
  42
1
  0
SEQEND
  0
POLYLINE
  8
Bottom_Silk
  6
CONTINUOUS
  66
1
  70
0
  40
0.0031
  41
0.0031
  0
VERTEX
  8
Bottom_Silk
  10
0.1238
  20
0.184
  42
1
  0
VERTEX
  8
Bottom_Silk
  10
0.1269
  20
0.184
  42
1
  0
VERTEX
  8
Bottom_Silk
  10
0.1238
  20
0.184
  42
1
  0
SEQEND
  0
POLYLINE
  8
Bottom_Silk
  6
CONTINUOUS
  66
1
  70
0
  40
0.0093
  41
0.0093
  0
VERTEX
  8
Bottom_Silk
  10
0.4595
  20
0.662
  42
0
  0
VERTEX
  8
Bottom_Silk
  10
0.4595
  20
0.6161
  42
0
  0
VERTEX
  8
Bottom_Silk
  10
0.4623
  20
0.6075
  42
0
  0
VERTEX
  8
Bottom_Silk
  10
0.4653
  20
0.6046
  42
0
  0
VERTEX
  8
Bottom_Silk
  10
0.471
  20
0.6017
  42
0
  0
VERTEX
  8
Bottom_Silk
  10
0.4767
  20
0.6017
  42
0
  0
VERTEX
  8
Bottom_Silk
  10
0.4824
  20
0.6046
  42
0
  0
VERTEX
  8
Bottom_Silk
  10
0.4853
  20
0.6075
  42
0
  0
VERTEX
  8
Bottom_Silk
  10
0.4882
  20
0.6161
  42
0
  0
VERTEX
  8
Bottom_Silk
  10
0.4882
  20
0.6218
  42
0
  0
SEQEND
  0
POLYLINE
  8
Bottom_Silk
  6
CONTINUOUS
  66
1
  70
0
  40
0.0046
  41
0.0046
  0
VERTEX
  8
Bottom_Silk
  10
0.4572
  20
0.662
  42
1
  0
VERTEX
  8
Bottom_Silk
  10
0.4618
  20
0.662
  42
1
  0
VERTEX
  8
Bottom_Silk
  10
0.4572
  20
0.662
  42
1
  0
SEQEND
  0
POLYLINE
  8
Bottom_Silk
  6
CONTINUOUS
  66
1
  70
0
  40
0.0046
  41
0.0046
  0
VERTEX
  8
Bottom_Silk
  10
0.4859
  20
0.6218
  42
1
  0
VERTEX
  8
Bottom_Silk
  10
0.4905
  20
0.6218
  42
1
  0
VERTEX
  8
Bottom_Silk
  10
0.4859
  20
0.6218
  42
1
  0
SEQEND
  0
POLYLINE
  8
Bottom_Silk
  6
CONTINUOUS
  66
1
  70
0
  40
0.0093
  41
0.0093
  0
VERTEX
  8
Bottom_Silk
  10
0.441
  20
0.662
  42
0
  0
VERTEX
  8
Bottom_Silk
  10
0.441
  20
0.6017
  42
0
  0
SEQEND
  0
POLYLINE
  8
Bottom_Silk
  6
CONTINUOUS
  66
1
  70
0
  40
0.0046
  41
0.0046
  0
VERTEX
  8
Bottom_Silk
  10
0.4386
  20
0.662
  42
1
  0
VERTEX
  8
Bottom_Silk
  10
0.4433
  20
0.662
  42
1
  0
VERTEX
  8
Bottom_Silk
  10
0.4386
  20
0.662
  42
1
  0
SEQEND
  0
POLYLINE
  8
Bottom_Silk
  6
CONTINUOUS
  66
1
  70
0
  40
0.0046
  41
0.0046
  0
VERTEX
  8
Bottom_Silk
  10
0.4386
  20
0.6017
  42
1
  0
VERTEX
  8
Bottom_Silk
  10
0.4433
  20
0.6017
  42
1
  0
VERTEX
  8
Bottom_Silk
  10
0.4386
  20
0.6017
  42
1
  0
SEQEND
  0
POLYLINE
  8
Bottom_Silk
  6
CONTINUOUS
  66
1
  70
0
  40
0.0093
  41
0.0093
  0
VERTEX
  8
Bottom_Silk
  10
0.4008
  20
0.662
  42
0
  0
VERTEX
  8
Bottom_Silk
  10
0.441
  20
0.6218
  42
0
  0
SEQEND
  0
POLYLINE
  8
Bottom_Silk
  6
CONTINUOUS
  66
1
  70
0
  40
0.0046
  41
0.0046
  0
VERTEX
  8
Bottom_Silk
  10
0.3985
  20
0.662
  42
1
  0
VERTEX
  8
Bottom_Silk
  10
0.4031
  20
0.662
  42
1
  0
VERTEX
  8
Bottom_Silk
  10
0.3985
  20
0.662
  42
1
  0
SEQEND
  0
POLYLINE
  8
Bottom_Silk
  6
CONTINUOUS
  66
1
  70
0
  40
0.0046
  41
0.0046
  0
VERTEX
  8
Bottom_Silk
  10
0.4386
  20
0.6218
  42
1
  0
VERTEX
  8
Bottom_Silk
  10
0.4433
  20
0.6218
  42
1
  0
VERTEX
  8
Bottom_Silk
  10
0.4386
  20
0.6218
  42
1
  0
SEQEND
  0
POLYLINE
  8
Bottom_Silk
  6
CONTINUOUS
  66
1
  70
0
  40
0.0093
  41
0.0093
  0
VERTEX
  8
Bottom_Silk
  10
0.4266
  20
0.6362
  42
0
  0
VERTEX
  8
Bottom_Silk
  10
0.4008
  20
0.6017
  42
0
  0
SEQEND
  0
POLYLINE
  8
Bottom_Silk
  6
CONTINUOUS
  66
1
  70
0
  40
0.0046
  41
0.0046
  0
VERTEX
  8
Bottom_Silk
  10
0.4243
  20
0.6362
  42
1
  0
VERTEX
  8
Bottom_Silk
  10
0.429
  20
0.6362
  42
1
  0
VERTEX
  8
Bottom_Silk
  10
0.4243
  20
0.6362
  42
1
  0
SEQEND
  0
POLYLINE
  8
Bottom_Silk
  6
CONTINUOUS
  66
1
  70
0
  40
0.0046
  41
0.0046
  0
VERTEX
  8
Bottom_Silk
  10
0.3985
  20
0.6017
  42
1
  0
VERTEX
  8
Bottom_Silk
  10
0.4031
  20
0.6017
  42
1
  0
VERTEX
  8
Bottom_Silk
  10
0.3985
  20
0.6017
  42
1
  0
SEQEND
  0
POLYLINE
  8
Bottom_Silk
  6
CONTINUOUS
  66
1
  70
0
  40
0.0062
  41
0.0062
  0
VERTEX
  8
Bottom_Silk
  10
0.3574
  20
0.64
  42
0
  0
VERTEX
  8
Bottom_Silk
  10
0.3822
  20
0.64
  42
0
  0
VERTEX
  8
Bottom_Silk
  10
0.3822
  20
0.5998
  42
0
  0
VERTEX
  8
Bottom_Silk
  10
0.3574
  20
0.5998
  42
0
  0
SEQEND
  0
POLYLINE
  8
Bottom_Silk
  6
CONTINUOUS
  66
1
  70
0
  40
0.0031
  41
0.0031
  0
VERTEX
  8
Bottom_Silk
  10
0.3558
  20
0.64
  42
1
  0
VERTEX
  8
Bottom_Silk
  10
0.3589
  20
0.64
  42
1
  0
VERTEX
  8
Bottom_Silk
  10
0.3558
  20
0.64
  42
1
  0
SEQEND
  0
POLYLINE
  8
Bottom_Silk
  6
CONTINUOUS
  66
1
  70
0
  40
0.0031
  41
0.0031
  0
VERTEX
  8
Bottom_Silk
  10
0.3558
  20
0.5998
  42
1
  0
VERTEX
  8
Bottom_Silk
  10
0.3589
  20
0.5998
  42
1
  0
VERTEX
  8
Bottom_Silk
  10
0.3558
  20
0.5998
  42
1
  0
SEQEND
  0
POLYLINE
  8
Bottom_Silk
  6
CONTINUOUS
  66
1
  70
0
  40
0.0062
  41
0.0062
  0
VERTEX
  8
Bottom_Silk
  10
0.3822
  20
0.6209
  42
0
  0
VERTEX
  8
Bottom_Silk
  10
0.3669
  20
0.6209
  42
0
  0
SEQEND
  0
POLYLINE
  8
Bottom_Silk
  6
CONTINUOUS
  66
1
  70
0
  40
0.0031
  41
0.0031
  0
VERTEX
  8
Bottom_Silk
  10
0.3807
  20
0.6209
  42
1
  0
VERTEX
  8
Bottom_Silk
  10
0.3837
  20
0.6209
  42
1
  0
VERTEX
  8
Bottom_Silk
  10
0.3807
  20
0.6209
  42
1
  0
SEQEND
  0
POLYLINE
  8
Bottom_Silk
  6
CONTINUOUS
  66
1
  70
0
  40
0.0031
  41
0.0031
  0
VERTEX
  8
Bottom_Silk
  10
0.3654
  20
0.6209
  42
1
  0
VERTEX
  8
Bottom_Silk
  10
0.3685
  20
0.6209
  42
1
  0
VERTEX
  8
Bottom_Silk
  10
0.3654
  20
0.6209
  42
1
  0
SEQEND
  0
POLYLINE
  8
Bottom_Silk
  6
CONTINUOUS
  66
1
  70
0
  40
0.0062
  41
0.0062
  0
VERTEX
  8
Bottom_Silk
  10
0.345
  20
0.64
  42
0
  0
VERTEX
  8
Bottom_Silk
  10
0.345
  20
0.5998
  42
0
  0
SEQEND
  0
POLYLINE
  8
Bottom_Silk
  6
CONTINUOUS
  66
1
  70
0
  40
0.0031
  41
0.0031
  0
VERTEX
  8
Bottom_Silk
  10
0.3435
  20
0.64
  42
1
  0
VERTEX
  8
Bottom_Silk
  10
0.3465
  20
0.64
  42
1
  0
VERTEX
  8
Bottom_Silk
  10
0.3435
  20
0.64
  42
1
  0
SEQEND
  0
POLYLINE
  8
Bottom_Silk
  6
CONTINUOUS
  66
1
  70
0
  40
0.0031
  41
0.0031
  0
VERTEX
  8
Bottom_Silk
  10
0.3435
  20
0.5998
  42
1
  0
VERTEX
  8
Bottom_Silk
  10
0.3465
  20
0.5998
  42
1
  0
VERTEX
  8
Bottom_Silk
  10
0.3435
  20
0.5998
  42
1
  0
SEQEND
  0
POLYLINE
  8
Bottom_Silk
  6
CONTINUOUS
  66
1
  70
0
  40
0.0062
  41
0.0062
  0
VERTEX
  8
Bottom_Silk
  10
0.3327
  20
0.6151
  42
0
  0
VERTEX
  8
Bottom_Silk
  10
0.3097
  20
0.6151
  42
0
  0
VERTEX
  8
Bottom_Silk
  10
0.3097
  20
0.619
  42
0
  0
VERTEX
  8
Bottom_Silk
  10
0.3116
  20
0.6228
  42
0
  0
VERTEX
  8
Bottom_Silk
  10
0.3135
  20
0.6247
  42
0
  0
VERTEX
  8
Bottom_Silk
  10
0.3174
  20
0.6266
  42
0
  0
VERTEX
  8
Bottom_Silk
  10
0.3231
  20
0.6266
  42
0
  0
VERTEX
  8
Bottom_Silk
  10
0.3269
  20
0.6247
  42
0
  0
VERTEX
  8
Bottom_Silk
  10
0.3308
  20
0.6209
  42
0
  0
VERTEX
  8
Bottom_Silk
  10
0.3327
  20
0.6151
  42
0
  0
VERTEX
  8
Bottom_Silk
  10
0.3327
  20
0.6113
  42
0
  0
VERTEX
  8
Bottom_Silk
  10
0.3308
  20
0.6056
  42
0
  0
VERTEX
  8
Bottom_Silk
  10
0.3269
  20
0.6018
  42
0
  0
VERTEX
  8
Bottom_Silk
  10
0.3231
  20
0.5998
  42
0
  0
VERTEX
  8
Bottom_Silk
  10
0.3174
  20
0.5998
  42
0
  0
VERTEX
  8
Bottom_Silk
  10
0.3135
  20
0.6018
  42
0
  0
VERTEX
  8
Bottom_Silk
  10
0.3097
  20
0.6056
  42
0
  0
SEQEND
  0
POLYLINE
  8
Bottom_Silk
  6
CONTINUOUS
  66
1
  70
0
  40
0.0031
  41
0.0031
  0
VERTEX
  8
Bottom_Silk
  10
0.3311
  20
0.6151
  42
1
  0
VERTEX
  8
Bottom_Silk
  10
0.3342
  20
0.6151
  42
1
  0
VERTEX
  8
Bottom_Silk
  10
0.3311
  20
0.6151
  42
1
  0
SEQEND
  0
POLYLINE
  8
Bottom_Silk
  6
CONTINUOUS
  66
1
  70
0
  40
0.0031
  41
0.0031
  0
VERTEX
  8
Bottom_Silk
  10
0.3082
  20
0.6056
  42
1
  0
VERTEX
  8
Bottom_Silk
  10
0.3112
  20
0.6056
  42
1
  0
VERTEX
  8
Bottom_Silk
  10
0.3082
  20
0.6056
  42
1
  0
SEQEND
  0
POLYLINE
  8
Bottom_Silk
  6
CONTINUOUS
  66
1
  70
0
  40
0.0062
  41
0.0062
  0
VERTEX
  8
Bottom_Silk
  10
0.2744
  20
0.6209
  42
0
  0
VERTEX
  8
Bottom_Silk
  10
0.2782
  20
0.6247
  42
0
  0
VERTEX
  8
Bottom_Silk
  10
0.2821
  20
0.6266
  42
0
  0
VERTEX
  8
Bottom_Silk
  10
0.2878
  20
0.6266
  42
0
  0
VERTEX
  8
Bottom_Silk
  10
0.2916
  20
0.6247
  42
0
  0
VERTEX
  8
Bottom_Silk
  10
0.2954
  20
0.6209
  42
0
  0
VERTEX
  8
Bottom_Silk
  10
0.2974
  20
0.6151
  42
0
  0
VERTEX
  8
Bottom_Silk
  10
0.2974
  20
0.6113
  42
0
  0
VERTEX
  8
Bottom_Silk
  10
0.2954
  20
0.6056
  42
0
  0
VERTEX
  8
Bottom_Silk
  10
0.2916
  20
0.6018
  42
0
  0
VERTEX
  8
Bottom_Silk
  10
0.2878
  20
0.5998
  42
0
  0
VERTEX
  8
Bottom_Silk
  10
0.2821
  20
0.5998
  42
0
  0
VERTEX
  8
Bottom_Silk
  10
0.2782
  20
0.6018
  42
0
  0
VERTEX
  8
Bottom_Silk
  10
0.2744
  20
0.6056
  42
0
  0
SEQEND
  0
POLYLINE
  8
Bottom_Silk
  6
CONTINUOUS
  66
1
  70
0
  40
0.0031
  41
0.0031
  0
VERTEX
  8
Bottom_Silk
  10
0.2728
  20
0.6209
  42
1
  0
VERTEX
  8
Bottom_Silk
  10
0.2759
  20
0.6209
  42
1
  0
VERTEX
  8
Bottom_Silk
  10
0.2728
  20
0.6209
  42
1
  0
SEQEND
  0
POLYLINE
  8
Bottom_Silk
  6
CONTINUOUS
  66
1
  70
0
  40
0.0031
  41
0.0031
  0
VERTEX
  8
Bottom_Silk
  10
0.2728
  20
0.6056
  42
1
  0
VERTEX
  8
Bottom_Silk
  10
0.2759
  20
0.6056
  42
1
  0
VERTEX
  8
Bottom_Silk
  10
0.2728
  20
0.6056
  42
1
  0
SEQEND
  0
POLYLINE
  8
Bottom_Silk
  6
CONTINUOUS
  66
1
  70
0
  40
0.0062
  41
0.0062
  0
VERTEX
  8
Bottom_Silk
  10
0.2563
  20
0.64
  42
0
  0
VERTEX
  8
Bottom_Silk
  10
0.2563
  20
0.6075
  42
0
  0
VERTEX
  8
Bottom_Silk
  10
0.2544
  20
0.6018
  42
0
  0
VERTEX
  8
Bottom_Silk
  10
0.2505
  20
0.5998
  42
0
  0
VERTEX
  8
Bottom_Silk
  10
0.2467
  20
0.5998
  42
0
  0
SEQEND
  0
POLYLINE
  8
Bottom_Silk
  6
CONTINUOUS
  66
1
  70
0
  40
0.0031
  41
0.0031
  0
VERTEX
  8
Bottom_Silk
  10
0.2547
  20
0.64
  42
1
  0
VERTEX
  8
Bottom_Silk
  10
0.2578
  20
0.64
  42
1
  0
VERTEX
  8
Bottom_Silk
  10
0.2547
  20
0.64
  42
1
  0
SEQEND
  0
POLYLINE
  8
Bottom_Silk
  6
CONTINUOUS
  66
1
  70
0
  40
0.0031
  41
0.0031
  0
VERTEX
  8
Bottom_Silk
  10
0.2452
  20
0.5998
  42
1
  0
VERTEX
  8
Bottom_Silk
  10
0.2483
  20
0.5998
  42
1
  0
VERTEX
  8
Bottom_Silk
  10
0.2452
  20
0.5998
  42
1
  0
SEQEND
  0
POLYLINE
  8
Bottom_Silk
  6
CONTINUOUS
  66
1
  70
0
  40
0.0062
  41
0.0062
  0
VERTEX
  8
Bottom_Silk
  10
0.262
  20
0.6266
  42
0
  0
VERTEX
  8
Bottom_Silk
  10
0.2486
  20
0.6266
  42
0
  0
SEQEND
  0
POLYLINE
  8
Bottom_Silk
  6
CONTINUOUS
  66
1
  70
0
  40
0.0031
  41
0.0031
  0
VERTEX
  8
Bottom_Silk
  10
0.2605
  20
0.6266
  42
1
  0
VERTEX
  8
Bottom_Silk
  10
0.2636
  20
0.6266
  42
1
  0
VERTEX
  8
Bottom_Silk
  10
0.2605
  20
0.6266
  42
1
  0
SEQEND
  0
POLYLINE
  8
Bottom_Silk
  6
CONTINUOUS
  66
1
  70
0
  40
0.0031
  41
0.0031
  0
VERTEX
  8
Bottom_Silk
  10
0.2471
  20
0.6266
  42
1
  0
VERTEX
  8
Bottom_Silk
  10
0.2502
  20
0.6266
  42
1
  0
VERTEX
  8
Bottom_Silk
  10
0.2471
  20
0.6266
  42
1
  0
SEQEND
  0
POLYLINE
  8
Bottom_Silk
  6
CONTINUOUS
  66
1
  70
0
  40
0.0062
  41
0.0062
  0
VERTEX
  8
Bottom_Silk
  10
0.2344
  20
0.6266
  42
0
  0
VERTEX
  8
Bottom_Silk
  10
0.2344
  20
0.5998
  42
0
  0
SEQEND
  0
POLYLINE
  8
Bottom_Silk
  6
CONTINUOUS
  66
1
  70
0
  40
0.0031
  41
0.0031
  0
VERTEX
  8
Bottom_Silk
  10
0.2328
  20
0.6266
  42
1
  0
VERTEX
  8
Bottom_Silk
  10
0.2359
  20
0.6266
  42
1
  0
VERTEX
  8
Bottom_Silk
  10
0.2328
  20
0.6266
  42
1
  0
SEQEND
  0
POLYLINE
  8
Bottom_Silk
  6
CONTINUOUS
  66
1
  70
0
  40
0.0031
  41
0.0031
  0
VERTEX
  8
Bottom_Silk
  10
0.2328
  20
0.5998
  42
1
  0
VERTEX
  8
Bottom_Silk
  10
0.2359
  20
0.5998
  42
1
  0
VERTEX
  8
Bottom_Silk
  10
0.2328
  20
0.5998
  42
1
  0
SEQEND
  0
POLYLINE
  8
Bottom_Silk
  6
CONTINUOUS
  66
1
  70
0
  40
0.0062
  41
0.0062
  0
VERTEX
  8
Bottom_Silk
  10
0.2344
  20
0.6151
  42
0
  0
VERTEX
  8
Bottom_Silk
  10
0.2324
  20
0.6209
  42
0
  0
VERTEX
  8
Bottom_Silk
  10
0.2286
  20
0.6247
  42
0
  0
VERTEX
  8
Bottom_Silk
  10
0.2248
  20
0.6266
  42
0
  0
VERTEX
  8
Bottom_Silk
  10
0.219
  20
0.6266
  42
0
  0
SEQEND
  0
POLYLINE
  8
Bottom_Silk
  6
CONTINUOUS
  66
1
  70
0
  40
0.0031
  41
0.0031
  0
VERTEX
  8
Bottom_Silk
  10
0.2328
  20
0.6151
  42
1
  0
VERTEX
  8
Bottom_Silk
  10
0.2359
  20
0.6151
  42
1
  0
VERTEX
  8
Bottom_Silk
  10
0.2328
  20
0.6151
  42
1
  0
SEQEND
  0
POLYLINE
  8
Bottom_Silk
  6
CONTINUOUS
  66
1
  70
0
  40
0.0031
  41
0.0031
  0
VERTEX
  8
Bottom_Silk
  10
0.2175
  20
0.6266
  42
1
  0
VERTEX
  8
Bottom_Silk
  10
0.2206
  20
0.6266
  42
1
  0
VERTEX
  8
Bottom_Silk
  10
0.2175
  20
0.6266
  42
1
  0
SEQEND
  0
POLYLINE
  8
Bottom_Silk
  6
CONTINUOUS
  66
1
  70
0
  40
0.0062
  41
0.0062
  0
VERTEX
  8
Bottom_Silk
  10
0.1971
  20
0.6266
  42
0
  0
VERTEX
  8
Bottom_Silk
  10
0.2009
  20
0.6247
  42
0
  0
VERTEX
  8
Bottom_Silk
  10
0.2048
  20
0.6209
  42
0
  0
VERTEX
  8
Bottom_Silk
  10
0.2067
  20
0.6151
  42
0
  0
VERTEX
  8
Bottom_Silk
  10
0.2067
  20
0.6113
  42
0
  0
VERTEX
  8
Bottom_Silk
  10
0.2048
  20
0.6056
  42
0
  0
VERTEX
  8
Bottom_Silk
  10
0.2009
  20
0.6018
  42
0
  0
VERTEX
  8
Bottom_Silk
  10
0.1971
  20
0.5998
  42
0
  0
VERTEX
  8
Bottom_Silk
  10
0.1914
  20
0.5998
  42
0
  0
VERTEX
  8
Bottom_Silk
  10
0.1875
  20
0.6018
  42
0
  0
VERTEX
  8
Bottom_Silk
  10
0.1837
  20
0.6056
  42
0
  0
VERTEX
  8
Bottom_Silk
  10
0.1818
  20
0.6113
  42
0
  0
VERTEX
  8
Bottom_Silk
  10
0.1818
  20
0.6151
  42
0
  0
VERTEX
  8
Bottom_Silk
  10
0.1837
  20
0.6209
  42
0
  0
VERTEX
  8
Bottom_Silk
  10
0.1875
  20
0.6247
  42
0
  0
VERTEX
  8
Bottom_Silk
  10
0.1914
  20
0.6266
  42
0
  0
VERTEX
  8
Bottom_Silk
  10
0.1971
  20
0.6266
  42
0
  0
SEQEND
  0
POLYLINE
  8
Bottom_Silk
  6
CONTINUOUS
  66
1
  70
0
  40
0.0031
  41
0.0031
  0
VERTEX
  8
Bottom_Silk
  10
0.1956
  20
0.6266
  42
1
  0
VERTEX
  8
Bottom_Silk
  10
0.1987
  20
0.6266
  42
1
  0
VERTEX
  8
Bottom_Silk
  10
0.1956
  20
0.6266
  42
1
  0
SEQEND
  0
POLYLINE
  8
Bottom_Silk
  6
CONTINUOUS
  66
1
  70
0
  40
0.0062
  41
0.0062
  0
VERTEX
  8
Bottom_Silk
  10
0.1694
  20
0.6266
  42
0
  0
VERTEX
  8
Bottom_Silk
  10
0.1694
  20
0.5998
  42
0
  0
SEQEND
  0
POLYLINE
  8
Bottom_Silk
  6
CONTINUOUS
  66
1
  70
0
  40
0.0031
  41
0.0031
  0
VERTEX
  8
Bottom_Silk
  10
0.1679
  20
0.6266
  42
1
  0
VERTEX
  8
Bottom_Silk
  10
0.171
  20
0.6266
  42
1
  0
VERTEX
  8
Bottom_Silk
  10
0.1679
  20
0.6266
  42
1
  0
SEQEND
  0
POLYLINE
  8
Bottom_Silk
  6
CONTINUOUS
  66
1
  70
0
  40
0.0031
  41
0.0031
  0
VERTEX
  8
Bottom_Silk
  10
0.1679
  20
0.5998
  42
1
  0
VERTEX
  8
Bottom_Silk
  10
0.171
  20
0.5998
  42
1
  0
VERTEX
  8
Bottom_Silk
  10
0.1679
  20
0.5998
  42
1
  0
SEQEND
  0
POLYLINE
  8
Bottom_Silk
  6
CONTINUOUS
  66
1
  70
0
  40
0.0062
  41
0.0062
  0
VERTEX
  8
Bottom_Silk
  10
0.1694
  20
0.619
  42
0
  0
VERTEX
  8
Bottom_Silk
  10
0.1637
  20
0.6247
  42
0
  0
VERTEX
  8
Bottom_Silk
  10
0.1598
  20
0.6266
  42
0
  0
VERTEX
  8
Bottom_Silk
  10
0.1541
  20
0.6266
  42
0
  0
VERTEX
  8
Bottom_Silk
  10
0.1503
  20
0.6247
  42
0
  0
VERTEX
  8
Bottom_Silk
  10
0.1484
  20
0.619
  42
0
  0
VERTEX
  8
Bottom_Silk
  10
0.1484
  20
0.5998
  42
0
  0
SEQEND
  0
POLYLINE
  8
Bottom_Silk
  6
CONTINUOUS
  66
1
  70
0
  40
0.0031
  41
0.0031
  0
VERTEX
  8
Bottom_Silk
  10
0.1679
  20
0.619
  42
1
  0
VERTEX
  8
Bottom_Silk
  10
0.171
  20
0.619
  42
1
  0
VERTEX
  8
Bottom_Silk
  10
0.1679
  20
0.619
  42
1
  0
SEQEND
  0
POLYLINE
  8
Bottom_Silk
  6
CONTINUOUS
  66
1
  70
0
  40
0.0031
  41
0.0031
  0
VERTEX
  8
Bottom_Silk
  10
0.1468
  20
0.5998
  42
1
  0
VERTEX
  8
Bottom_Silk
  10
0.1499
  20
0.5998
  42
1
  0
VERTEX
  8
Bottom_Silk
  10
0.1468
  20
0.5998
  42
1
  0
SEQEND
  0
POLYLINE
  8
Bottom_Silk
  6
CONTINUOUS
  66
1
  70
0
  40
0.0062
  41
0.0062
  0
VERTEX
  8
Bottom_Silk
  10
0.136
  20
0.64
  42
0
  0
VERTEX
  8
Bottom_Silk
  10
0.1341
  20
0.6381
  42
0
  0
VERTEX
  8
Bottom_Silk
  10
0.1322
  20
0.64
  42
0
  0
VERTEX
  8
Bottom_Silk
  10
0.1341
  20
0.642
  42
0
  0
VERTEX
  8
Bottom_Silk
  10
0.136
  20
0.64
  42
0
  0
SEQEND
  0
POLYLINE
  8
Bottom_Silk
  6
CONTINUOUS
  66
1
  70
0
  40
0.0031
  41
0.0031
  0
VERTEX
  8
Bottom_Silk
  10
0.1345
  20
0.64
  42
1
  0
VERTEX
  8
Bottom_Silk
  10
0.1376
  20
0.64
  42
1
  0
VERTEX
  8
Bottom_Silk
  10
0.1345
  20
0.64
  42
1
  0
SEQEND
  0
POLYLINE
  8
Bottom_Silk
  6
CONTINUOUS
  66
1
  70
0
  40
0.0062
  41
0.0062
  0
VERTEX
  8
Bottom_Silk
  10
0.1341
  20
0.6266
  42
0
  0
VERTEX
  8
Bottom_Silk
  10
0.1341
  20
0.5998
  42
0
  0
SEQEND
  0
POLYLINE
  8
Bottom_Silk
  6
CONTINUOUS
  66
1
  70
0
  40
0.0031
  41
0.0031
  0
VERTEX
  8
Bottom_Silk
  10
0.1326
  20
0.6266
  42
1
  0
VERTEX
  8
Bottom_Silk
  10
0.1357
  20
0.6266
  42
1
  0
VERTEX
  8
Bottom_Silk
  10
0.1326
  20
0.6266
  42
1
  0
SEQEND
  0
POLYLINE
  8
Bottom_Silk
  6
CONTINUOUS
  66
1
  70
0
  40
0.0031
  41
0.0031
  0
VERTEX
  8
Bottom_Silk
  10
0.1326
  20
0.5998
  42
1
  0
VERTEX
  8
Bottom_Silk
  10
0.1357
  20
0.5998
  42
1
  0
VERTEX
  8
Bottom_Silk
  10
0.1326
  20
0.5998
  42
1
  0
SEQEND
  0
POLYLINE
  8
Bottom_Silk
  6
CONTINUOUS
  66
1
  70
0
  40
0.0062
  41
0.0062
  0
VERTEX
  8
Bottom_Silk
  10
0.0968
  20
0.6209
  42
0
  0
VERTEX
  8
Bottom_Silk
  10
0.1007
  20
0.6247
  42
0
  0
VERTEX
  8
Bottom_Silk
  10
0.1045
  20
0.6266
  42
0
  0
VERTEX
  8
Bottom_Silk
  10
0.1102
  20
0.6266
  42
0
  0
VERTEX
  8
Bottom_Silk
  10
0.1141
  20
0.6247
  42
0
  0
VERTEX
  8
Bottom_Silk
  10
0.1179
  20
0.6209
  42
0
  0
VERTEX
  8
Bottom_Silk
  10
0.1198
  20
0.6151
  42
0
  0
VERTEX
  8
Bottom_Silk
  10
0.1198
  20
0.6113
  42
0
  0
VERTEX
  8
Bottom_Silk
  10
0.1179
  20
0.6056
  42
0
  0
VERTEX
  8
Bottom_Silk
  10
0.1141
  20
0.6018
  42
0
  0
VERTEX
  8
Bottom_Silk
  10
0.1102
  20
0.5998
  42
0
  0
VERTEX
  8
Bottom_Silk
  10
0.1045
  20
0.5998
  42
0
  0
VERTEX
  8
Bottom_Silk
  10
0.1007
  20
0.6018
  42
0
  0
VERTEX
  8
Bottom_Silk
  10
0.0968
  20
0.6056
  42
0
  0
SEQEND
  0
POLYLINE
  8
Bottom_Silk
  6
CONTINUOUS
  66
1
  70
0
  40
0.0031
  41
0.0031
  0
VERTEX
  8
Bottom_Silk
  10
0.0953
  20
0.6209
  42
1
  0
VERTEX
  8
Bottom_Silk
  10
0.0984
  20
0.6209
  42
1
  0
VERTEX
  8
Bottom_Silk
  10
0.0953
  20
0.6209
  42
1
  0
SEQEND
  0
POLYLINE
  8
Bottom_Silk
  6
CONTINUOUS
  66
1
  70
0
  40
0.0031
  41
0.0031
  0
VERTEX
  8
Bottom_Silk
  10
0.0953
  20
0.6056
  42
1
  0
VERTEX
  8
Bottom_Silk
  10
0.0984
  20
0.6056
  42
1
  0
VERTEX
  8
Bottom_Silk
  10
0.0953
  20
0.6056
  42
1
  0
SEQEND
  0
POLYLINE
  8
Bottom_Silk
  6
CONTINUOUS
  66
1
  70
0
  40
0.0062
  41
0.0062
  0
VERTEX
  8
Bottom_Silk
  10
0.0634
  20
0.6209
  42
0
  0
VERTEX
  8
Bottom_Silk
  10
0.0653
  20
0.6247
  42
0
  0
VERTEX
  8
Bottom_Silk
  10
0.0711
  20
0.6266
  42
0
  0
VERTEX
  8
Bottom_Silk
  10
0.0768
  20
0.6266
  42
0
  0
VERTEX
  8
Bottom_Silk
  10
0.0826
  20
0.6247
  42
0
  0
VERTEX
  8
Bottom_Silk
  10
0.0845
  20
0.6209
  42
0
  0
VERTEX
  8
Bottom_Silk
  10
0.0826
  20
0.6171
  42
0
  0
VERTEX
  8
Bottom_Silk
  10
0.0787
  20
0.6151
  42
0
  0
VERTEX
  8
Bottom_Silk
  10
0.0692
  20
0.6132
  42
0
  0
VERTEX
  8
Bottom_Silk
  10
0.0653
  20
0.6113
  42
0
  0
VERTEX
  8
Bottom_Silk
  10
0.0634
  20
0.6075
  42
0
  0
VERTEX
  8
Bottom_Silk
  10
0.0634
  20
0.6056
  42
0
  0
VERTEX
  8
Bottom_Silk
  10
0.0653
  20
0.6018
  42
0
  0
VERTEX
  8
Bottom_Silk
  10
0.0711
  20
0.5998
  42
0
  0
VERTEX
  8
Bottom_Silk
  10
0.0768
  20
0.5998
  42
0
  0
VERTEX
  8
Bottom_Silk
  10
0.0826
  20
0.6018
  42
0
  0
VERTEX
  8
Bottom_Silk
  10
0.0845
  20
0.6056
  42
0
  0
SEQEND
  0
POLYLINE
  8
Bottom_Silk
  6
CONTINUOUS
  66
1
  70
0
  40
0.0031
  41
0.0031
  0
VERTEX
  8
Bottom_Silk
  10
0.0619
  20
0.6209
  42
1
  0
VERTEX
  8
Bottom_Silk
  10
0.065
  20
0.6209
  42
1
  0
VERTEX
  8
Bottom_Silk
  10
0.0619
  20
0.6209
  42
1
  0
SEQEND
  0
POLYLINE
  8
Bottom_Silk
  6
CONTINUOUS
  66
1
  70
0
  40
0.0031
  41
0.0031
  0
VERTEX
  8
Bottom_Silk
  10
0.0829
  20
0.6056
  42
1
  0
VERTEX
  8
Bottom_Silk
  10
0.086
  20
0.6056
  42
1
  0
VERTEX
  8
Bottom_Silk
  10
0.0829
  20
0.6056
  42
1
  0
SEQEND
  0
POLYLINE
  8
Bottom_Silk
  6
CONTINUOUS
  66
1
  70
0
  40
0.0062
  41
0.0062
  0
VERTEX
  8
Bottom_Silk
  10
0.4885
  20
0.5597
  42
0
  0
VERTEX
  8
Bottom_Silk
  10
0.4809
  20
0.5329
  42
0
  0
VERTEX
  8
Bottom_Silk
  10
0.4732
  20
0.5597
  42
0
  0
VERTEX
  8
Bottom_Silk
  10
0.4656
  20
0.5329
  42
0
  0
VERTEX
  8
Bottom_Silk
  10
0.4579
  20
0.5597
  42
0
  0
SEQEND
  0
POLYLINE
  8
Bottom_Silk
  6
CONTINUOUS
  66
1
  70
0
  40
0.0031
  41
0.0031
  0
VERTEX
  8
Bottom_Silk
  10
0.487
  20
0.5597
  42
1
  0
VERTEX
  8
Bottom_Silk
  10
0.4901
  20
0.5597
  42
1
  0
VERTEX
  8
Bottom_Silk
  10
0.487
  20
0.5597
  42
1
  0
SEQEND
  0
POLYLINE
  8
Bottom_Silk
  6
CONTINUOUS
  66
1
  70
0
  40
0.0031
  41
0.0031
  0
VERTEX
  8
Bottom_Silk
  10
0.4564
  20
0.5597
  42
1
  0
VERTEX
  8
Bottom_Silk
  10
0.4595
  20
0.5597
  42
1
  0
VERTEX
  8
Bottom_Silk
  10
0.4564
  20
0.5597
  42
1
  0
SEQEND
  0
POLYLINE
  8
Bottom_Silk
  6
CONTINUOUS
  66
1
  70
0
  40
0.0062
  41
0.0062
  0
VERTEX
  8
Bottom_Silk
  10
0.4456
  20
0.5597
  42
0
  0
VERTEX
  8
Bottom_Silk
  10
0.4379
  20
0.5329
  42
0
  0
VERTEX
  8
Bottom_Silk
  10
0.4303
  20
0.5597
  42
0
  0
VERTEX
  8
Bottom_Silk
  10
0.4226
  20
0.5329
  42
0
  0
VERTEX
  8
Bottom_Silk
  10
0.415
  20
0.5597
  42
0
  0
SEQEND
  0
POLYLINE
  8
Bottom_Silk
  6
CONTINUOUS
  66
1
  70
0
  40
0.0031
  41
0.0031
  0
VERTEX
  8
Bottom_Silk
  10
0.444
  20
0.5597
  42
1
  0
VERTEX
  8
Bottom_Silk
  10
0.4471
  20
0.5597
  42
1
  0
VERTEX
  8
Bottom_Silk
  10
0.444
  20
0.5597
  42
1
  0
SEQEND
  0
POLYLINE
  8
Bottom_Silk
  6
CONTINUOUS
  66
1
  70
0
  40
0.0031
  41
0.0031
  0
VERTEX
  8
Bottom_Silk
  10
0.4134
  20
0.5597
  42
1
  0
VERTEX
  8
Bottom_Silk
  10
0.4165
  20
0.5597
  42
1
  0
VERTEX
  8
Bottom_Silk
  10
0.4134
  20
0.5597
  42
1
  0
SEQEND
  0
POLYLINE
  8
Bottom_Silk
  6
CONTINUOUS
  66
1
  70
0
  40
0.0062
  41
0.0062
  0
VERTEX
  8
Bottom_Silk
  10
0.4026
  20
0.5597
  42
0
  0
VERTEX
  8
Bottom_Silk
  10
0.395
  20
0.5329
  42
0
  0
VERTEX
  8
Bottom_Silk
  10
0.3873
  20
0.5597
  42
0
  0
VERTEX
  8
Bottom_Silk
  10
0.3797
  20
0.5329
  42
0
  0
VERTEX
  8
Bottom_Silk
  10
0.372
  20
0.5597
  42
0
  0
SEQEND
  0
POLYLINE
  8
Bottom_Silk
  6
CONTINUOUS
  66
1
  70
0
  40
0.0031
  41
0.0031
  0
VERTEX
  8
Bottom_Silk
  10
0.4011
  20
0.5597
  42
1
  0
VERTEX
  8
Bottom_Silk
  10
0.4042
  20
0.5597
  42
1
  0
VERTEX
  8
Bottom_Silk
  10
0.4011
  20
0.5597
  42
1
  0
SEQEND
  0
POLYLINE
  8
Bottom_Silk
  6
CONTINUOUS
  66
1
  70
0
  40
0.0031
  41
0.0031
  0
VERTEX
  8
Bottom_Silk
  10
0.3705
  20
0.5597
  42
1
  0
VERTEX
  8
Bottom_Silk
  10
0.3736
  20
0.5597
  42
1
  0
VERTEX
  8
Bottom_Silk
  10
0.3705
  20
0.5597
  42
1
  0
SEQEND
  0
POLYLINE
  8
Bottom_Silk
  6
CONTINUOUS
  66
1
  70
0
  40
0.0062
  41
0.0062
  0
VERTEX
  8
Bottom_Silk
  10
0.3578
  20
0.5367
  42
0
  0
VERTEX
  8
Bottom_Silk
  10
0.3597
  20
0.5348
  42
0
  0
VERTEX
  8
Bottom_Silk
  10
0.3578
  20
0.5329
  42
0
  0
VERTEX
  8
Bottom_Silk
  10
0.3558
  20
0.5348
  42
0
  0
VERTEX
  8
Bottom_Silk
  10
0.3578
  20
0.5367
  42
0
  0
SEQEND
  0
POLYLINE
  8
Bottom_Silk
  6
CONTINUOUS
  66
1
  70
0
  40
0.0031
  41
0.0031
  0
VERTEX
  8
Bottom_Silk
  10
0.3562
  20
0.5367
  42
1
  0
VERTEX
  8
Bottom_Silk
  10
0.3593
  20
0.5367
  42
1
  0
VERTEX
  8
Bottom_Silk
  10
0.3562
  20
0.5367
  42
1
  0
SEQEND
  0
POLYLINE
  8
Bottom_Silk
  6
CONTINUOUS
  66
1
  70
0
  40
0.0062
  41
0.0062
  0
VERTEX
  8
Bottom_Silk
  10
0.3358
  20
0.5731
  42
0
  0
VERTEX
  8
Bottom_Silk
  10
0.3339
  20
0.5712
  42
0
  0
VERTEX
  8
Bottom_Silk
  10
0.332
  20
0.5731
  42
0
  0
VERTEX
  8
Bottom_Silk
  10
0.3339
  20
0.575
  42
0
  0
VERTEX
  8
Bottom_Silk
  10
0.3358
  20
0.5731
  42
0
  0
SEQEND
  0
POLYLINE
  8
Bottom_Silk
  6
CONTINUOUS
  66
1
  70
0
  40
0.0031
  41
0.0031
  0
VERTEX
  8
Bottom_Silk
  10
0.3343
  20
0.5731
  42
1
  0
VERTEX
  8
Bottom_Silk
  10
0.3374
  20
0.5731
  42
1
  0
VERTEX
  8
Bottom_Silk
  10
0.3343
  20
0.5731
  42
1
  0
SEQEND
  0
POLYLINE
  8
Bottom_Silk
  6
CONTINUOUS
  66
1
  70
0
  40
0.0062
  41
0.0062
  0
VERTEX
  8
Bottom_Silk
  10
0.3339
  20
0.5597
  42
0
  0
VERTEX
  8
Bottom_Silk
  10
0.3339
  20
0.5272
  42
0
  0
VERTEX
  8
Bottom_Silk
  10
0.3358
  20
0.5214
  42
0
  0
VERTEX
  8
Bottom_Silk
  10
0.3396
  20
0.5195
  42
0
  0
VERTEX
  8
Bottom_Silk
  10
0.3435
  20
0.5195
  42
0
  0
SEQEND
  0
POLYLINE
  8
Bottom_Silk
  6
CONTINUOUS
  66
1
  70
0
  40
0.0031
  41
0.0031
  0
VERTEX
  8
Bottom_Silk
  10
0.3323
  20
0.5597
  42
1
  0
VERTEX
  8
Bottom_Silk
  10
0.3354
  20
0.5597
  42
1
  0
VERTEX
  8
Bottom_Silk
  10
0.3323
  20
0.5597
  42
1
  0
SEQEND
  0
POLYLINE
  8
Bottom_Silk
  6
CONTINUOUS
  66
1
  70
0
  40
0.0031
  41
0.0031
  0
VERTEX
  8
Bottom_Silk
  10
0.3419
  20
0.5195
  42
1
  0
VERTEX
  8
Bottom_Silk
  10
0.345
  20
0.5195
  42
1
  0
VERTEX
  8
Bottom_Silk
  10
0.3419
  20
0.5195
  42
1
  0
SEQEND
  0
POLYLINE
  8
Bottom_Silk
  6
CONTINUOUS
  66
1
  70
0
  40
0.0062
  41
0.0062
  0
VERTEX
  8
Bottom_Silk
  10
0.3196
  20
0.5731
  42
0
  0
VERTEX
  8
Bottom_Silk
  10
0.3196
  20
0.5329
  42
0
  0
SEQEND
  0
POLYLINE
  8
Bottom_Silk
  6
CONTINUOUS
  66
1
  70
0
  40
0.0031
  41
0.0031
  0
VERTEX
  8
Bottom_Silk
  10
0.3181
  20
0.5731
  42
1
  0
VERTEX
  8
Bottom_Silk
  10
0.3212
  20
0.5731
  42
1
  0
VERTEX
  8
Bottom_Silk
  10
0.3181
  20
0.5731
  42
1
  0
SEQEND
  0
POLYLINE
  8
Bottom_Silk
  6
CONTINUOUS
  66
1
  70
0
  40
0.0031
  41
0.0031
  0
VERTEX
  8
Bottom_Silk
  10
0.3181
  20
0.5329
  42
1
  0
VERTEX
  8
Bottom_Silk
  10
0.3212
  20
0.5329
  42
1
  0
VERTEX
  8
Bottom_Silk
  10
0.3181
  20
0.5329
  42
1
  0
SEQEND
  0
POLYLINE
  8
Bottom_Silk
  6
CONTINUOUS
  66
1
  70
0
  40
0.0062
  41
0.0062
  0
VERTEX
  8
Bottom_Silk
  10
0.3005
  20
0.5597
  42
0
  0
VERTEX
  8
Bottom_Silk
  10
0.3196
  20
0.5405
  42
0
  0
SEQEND
  0
POLYLINE
  8
Bottom_Silk
  6
CONTINUOUS
  66
1
  70
0
  40
0.0031
  41
0.0031
  0
VERTEX
  8
Bottom_Silk
  10
0.2989
  20
0.5597
  42
1
  0
VERTEX
  8
Bottom_Silk
  10
0.302
  20
0.5597
  42
1
  0
VERTEX
  8
Bottom_Silk
  10
0.2989
  20
0.5597
  42
1
  0
SEQEND
  0
POLYLINE
  8
Bottom_Silk
  6
CONTINUOUS
  66
1
  70
0
  40
0.0031
  41
0.0031
  0
VERTEX
  8
Bottom_Silk
  10
0.3181
  20
0.5405
  42
1
  0
VERTEX
  8
Bottom_Silk
  10
0.3212
  20
0.5405
  42
1
  0
VERTEX
  8
Bottom_Silk
  10
0.3181
  20
0.5405
  42
1
  0
SEQEND
  0
POLYLINE
  8
Bottom_Silk
  6
CONTINUOUS
  66
1
  70
0
  40
0.0062
  41
0.0062
  0
VERTEX
  8
Bottom_Silk
  10
0.312
  20
0.5482
  42
0
  0
VERTEX
  8
Bottom_Silk
  10
0.2986
  20
0.5329
  42
0
  0
SEQEND
  0
POLYLINE
  8
Bottom_Silk
  6
CONTINUOUS
  66
1
  70
0
  40
0.0031
  41
0.0031
  0
VERTEX
  8
Bottom_Silk
  10
0.3104
  20
0.5482
  42
1
  0
VERTEX
  8
Bottom_Silk
  10
0.3135
  20
0.5482
  42
1
  0
VERTEX
  8
Bottom_Silk
  10
0.3104
  20
0.5482
  42
1
  0
SEQEND
  0
POLYLINE
  8
Bottom_Silk
  6
CONTINUOUS
  66
1
  70
0
  40
0.0031
  41
0.0031
  0
VERTEX
  8
Bottom_Silk
  10
0.297
  20
0.5329
  42
1
  0
VERTEX
  8
Bottom_Silk
  10
0.3001
  20
0.5329
  42
1
  0
VERTEX
  8
Bottom_Silk
  10
0.297
  20
0.5329
  42
1
  0
SEQEND
  0
POLYLINE
  8
Bottom_Silk
  6
CONTINUOUS
  66
1
  70
0
  40
0.0062
  41
0.0062
  0
VERTEX
  8
Bottom_Silk
  10
0.2862
  20
0.5482
  42
0
  0
VERTEX
  8
Bottom_Silk
  10
0.2633
  20
0.5482
  42
0
  0
VERTEX
  8
Bottom_Silk
  10
0.2633
  20
0.552
  42
0
  0
VERTEX
  8
Bottom_Silk
  10
0.2652
  20
0.5559
  42
0
  0
VERTEX
  8
Bottom_Silk
  10
0.2671
  20
0.5578
  42
0
  0
VERTEX
  8
Bottom_Silk
  10
0.2709
  20
0.5597
  42
0
  0
VERTEX
  8
Bottom_Silk
  10
0.2767
  20
0.5597
  42
0
  0
VERTEX
  8
Bottom_Silk
  10
0.2805
  20
0.5578
  42
0
  0
VERTEX
  8
Bottom_Silk
  10
0.2843
  20
0.5539
  42
0
  0
VERTEX
  8
Bottom_Silk
  10
0.2862
  20
0.5482
  42
0
  0
VERTEX
  8
Bottom_Silk
  10
0.2862
  20
0.5444
  42
0
  0
VERTEX
  8
Bottom_Silk
  10
0.2843
  20
0.5386
  42
0
  0
VERTEX
  8
Bottom_Silk
  10
0.2805
  20
0.5348
  42
0
  0
VERTEX
  8
Bottom_Silk
  10
0.2767
  20
0.5329
  42
0
  0
VERTEX
  8
Bottom_Silk
  10
0.2709
  20
0.5329
  42
0
  0
VERTEX
  8
Bottom_Silk
  10
0.2671
  20
0.5348
  42
0
  0
VERTEX
  8
Bottom_Silk
  10
0.2633
  20
0.5386
  42
0
  0
SEQEND
  0
POLYLINE
  8
Bottom_Silk
  6
CONTINUOUS
  66
1
  70
0
  40
0.0031
  41
0.0031
  0
VERTEX
  8
Bottom_Silk
  10
0.2847
  20
0.5482
  42
1
  0
VERTEX
  8
Bottom_Silk
  10
0.2878
  20
0.5482
  42
1
  0
VERTEX
  8
Bottom_Silk
  10
0.2847
  20
0.5482
  42
1
  0
SEQEND
  0
POLYLINE
  8
Bottom_Silk
  6
CONTINUOUS
  66
1
  70
0
  40
0.0031
  41
0.0031
  0
VERTEX
  8
Bottom_Silk
  10
0.2617
  20
0.5386
  42
1
  0
VERTEX
  8
Bottom_Silk
  10
0.2648
  20
0.5386
  42
1
  0
VERTEX
  8
Bottom_Silk
  10
0.2617
  20
0.5386
  42
1
  0
SEQEND
  0
POLYLINE
  8
Bottom_Silk
  6
CONTINUOUS
  66
1
  70
0
  40
0.0062
  41
0.0062
  0
VERTEX
  8
Bottom_Silk
  10
0.2509
  20
0.5731
  42
0
  0
VERTEX
  8
Bottom_Silk
  10
0.2509
  20
0.5329
  42
0
  0
SEQEND
  0
POLYLINE
  8
Bottom_Silk
  6
CONTINUOUS
  66
1
  70
0
  40
0.0031
  41
0.0031
  0
VERTEX
  8
Bottom_Silk
  10
0.2494
  20
0.5731
  42
1
  0
VERTEX
  8
Bottom_Silk
  10
0.2525
  20
0.5731
  42
1
  0
VERTEX
  8
Bottom_Silk
  10
0.2494
  20
0.5731
  42
1
  0
SEQEND
  0
POLYLINE
  8
Bottom_Silk
  6
CONTINUOUS
  66
1
  70
0
  40
0.0031
  41
0.0031
  0
VERTEX
  8
Bottom_Silk
  10
0.2494
  20
0.5329
  42
1
  0
VERTEX
  8
Bottom_Silk
  10
0.2525
  20
0.5329
  42
1
  0
VERTEX
  8
Bottom_Silk
  10
0.2494
  20
0.5329
  42
1
  0
SEQEND
  0
POLYLINE
  8
Bottom_Silk
  6
CONTINUOUS
  66
1
  70
0
  40
0.0062
  41
0.0062
  0
VERTEX
  8
Bottom_Silk
  10
0.2386
  20
0.5482
  42
0
  0
VERTEX
  8
Bottom_Silk
  10
0.2156
  20
0.5482
  42
0
  0
VERTEX
  8
Bottom_Silk
  10
0.2156
  20
0.552
  42
0
  0
VERTEX
  8
Bottom_Silk
  10
0.2175
  20
0.5559
  42
0
  0
VERTEX
  8
Bottom_Silk
  10
0.2194
  20
0.5578
  42
0
  0
VERTEX
  8
Bottom_Silk
  10
0.2233
  20
0.5597
  42
0
  0
VERTEX
  8
Bottom_Silk
  10
0.229
  20
0.5597
  42
0
  0
VERTEX
  8
Bottom_Silk
  10
0.2328
  20
0.5578
  42
0
  0
VERTEX
  8
Bottom_Silk
  10
0.2367
  20
0.5539
  42
0
  0
VERTEX
  8
Bottom_Silk
  10
0.2386
  20
0.5482
  42
0
  0
VERTEX
  8
Bottom_Silk
  10
0.2386
  20
0.5444
  42
0
  0
VERTEX
  8
Bottom_Silk
  10
0.2367
  20
0.5386
  42
0
  0
VERTEX
  8
Bottom_Silk
  10
0.2328
  20
0.5348
  42
0
  0
VERTEX
  8
Bottom_Silk
  10
0.229
  20
0.5329
  42
0
  0
VERTEX
  8
Bottom_Silk
  10
0.2233
  20
0.5329
  42
0
  0
VERTEX
  8
Bottom_Silk
  10
0.2194
  20
0.5348
  42
0
  0
VERTEX
  8
Bottom_Silk
  10
0.2156
  20
0.5386
  42
0
  0
SEQEND
  0
POLYLINE
  8
Bottom_Silk
  6
CONTINUOUS
  66
1
  70
0
  40
0.0031
  41
0.0031
  0
VERTEX
  8
Bottom_Silk
  10
0.237
  20
0.5482
  42
1
  0
VERTEX
  8
Bottom_Silk
  10
0.2401
  20
0.5482
  42
1
  0
VERTEX
  8
Bottom_Silk
  10
0.237
  20
0.5482
  42
1
  0
SEQEND
  0
POLYLINE
  8
Bottom_Silk
  6
CONTINUOUS
  66
1
  70
0
  40
0.0031
  41
0.0031
  0
VERTEX
  8
Bottom_Silk
  10
0.2141
  20
0.5386
  42
1
  0
VERTEX
  8
Bottom_Silk
  10
0.2172
  20
0.5386
  42
1
  0
VERTEX
  8
Bottom_Silk
  10
0.2141
  20
0.5386
  42
1
  0
SEQEND
  0
POLYLINE
  8
Bottom_Silk
  6
CONTINUOUS
  66
1
  70
0
  40
0.0062
  41
0.0062
  0
VERTEX
  8
Bottom_Silk
  10
0.1803
  20
0.5539
  42
0
  0
VERTEX
  8
Bottom_Silk
  10
0.1841
  20
0.5578
  42
0
  0
VERTEX
  8
Bottom_Silk
  10
0.188
  20
0.5597
  42
0
  0
VERTEX
  8
Bottom_Silk
  10
0.1937
  20
0.5597
  42
0
  0
VERTEX
  8
Bottom_Silk
  10
0.1975
  20
0.5578
  42
0
  0
VERTEX
  8
Bottom_Silk
  10
0.2013
  20
0.5539
  42
0
  0
VERTEX
  8
Bottom_Silk
  10
0.2033
  20
0.5482
  42
0
  0
VERTEX
  8
Bottom_Silk
  10
0.2033
  20
0.5444
  42
0
  0
VERTEX
  8
Bottom_Silk
  10
0.2013
  20
0.5386
  42
0
  0
VERTEX
  8
Bottom_Silk
  10
0.1975
  20
0.5348
  42
0
  0
VERTEX
  8
Bottom_Silk
  10
0.1937
  20
0.5329
  42
0
  0
VERTEX
  8
Bottom_Silk
  10
0.188
  20
0.5329
  42
0
  0
VERTEX
  8
Bottom_Silk
  10
0.1841
  20
0.5348
  42
0
  0
VERTEX
  8
Bottom_Silk
  10
0.1803
  20
0.5386
  42
0
  0
SEQEND
  0
POLYLINE
  8
Bottom_Silk
  6
CONTINUOUS
  66
1
  70
0
  40
0.0031
  41
0.0031
  0
VERTEX
  8
Bottom_Silk
  10
0.1787
  20
0.5539
  42
1
  0
VERTEX
  8
Bottom_Silk
  10
0.1818
  20
0.5539
  42
1
  0
VERTEX
  8
Bottom_Silk
  10
0.1787
  20
0.5539
  42
1
  0
SEQEND
  0
POLYLINE
  8
Bottom_Silk
  6
CONTINUOUS
  66
1
  70
0
  40
0.0031
  41
0.0031
  0
VERTEX
  8
Bottom_Silk
  10
0.1787
  20
0.5386
  42
1
  0
VERTEX
  8
Bottom_Silk
  10
0.1818
  20
0.5386
  42
1
  0
VERTEX
  8
Bottom_Silk
  10
0.1787
  20
0.5386
  42
1
  0
SEQEND
  0
POLYLINE
  8
Bottom_Silk
  6
CONTINUOUS
  66
1
  70
0
  40
0.0062
  41
0.0062
  0
VERTEX
  8
Bottom_Silk
  10
0.166
  20
0.5367
  42
0
  0
VERTEX
  8
Bottom_Silk
  10
0.1679
  20
0.5348
  42
0
  0
VERTEX
  8
Bottom_Silk
  10
0.166
  20
0.5329
  42
0
  0
VERTEX
  8
Bottom_Silk
  10
0.1641
  20
0.5348
  42
0
  0
VERTEX
  8
Bottom_Silk
  10
0.166
  20
0.5367
  42
0
  0
SEQEND
  0
POLYLINE
  8
Bottom_Silk
  6
CONTINUOUS
  66
1
  70
0
  40
0.0031
  41
0.0031
  0
VERTEX
  8
Bottom_Silk
  10
0.1645
  20
0.5367
  42
1
  0
VERTEX
  8
Bottom_Silk
  10
0.1676
  20
0.5367
  42
1
  0
VERTEX
  8
Bottom_Silk
  10
0.1645
  20
0.5367
  42
1
  0
SEQEND
  0
POLYLINE
  8
Bottom_Silk
  6
CONTINUOUS
  66
1
  70
0
  40
0.0062
  41
0.0062
  0
VERTEX
  8
Bottom_Silk
  10
0.1287
  20
0.5539
  42
0
  0
VERTEX
  8
Bottom_Silk
  10
0.1326
  20
0.5578
  42
0
  0
VERTEX
  8
Bottom_Silk
  10
0.1364
  20
0.5597
  42
0
  0
VERTEX
  8
Bottom_Silk
  10
0.1421
  20
0.5597
  42
0
  0
VERTEX
  8
Bottom_Silk
  10
0.146
  20
0.5578
  42
0
  0
VERTEX
  8
Bottom_Silk
  10
0.1498
  20
0.5539
  42
0
  0
VERTEX
  8
Bottom_Silk
  10
0.1517
  20
0.5482
  42
0
  0
VERTEX
  8
Bottom_Silk
  10
0.1517
  20
0.5444
  42
0
  0
VERTEX
  8
Bottom_Silk
  10
0.1498
  20
0.5386
  42
0
  0
VERTEX
  8
Bottom_Silk
  10
0.146
  20
0.5348
  42
0
  0
VERTEX
  8
Bottom_Silk
  10
0.1421
  20
0.5329
  42
0
  0
VERTEX
  8
Bottom_Silk
  10
0.1364
  20
0.5329
  42
0
  0
VERTEX
  8
Bottom_Silk
  10
0.1326
  20
0.5348
  42
0
  0
VERTEX
  8
Bottom_Silk
  10
0.1287
  20
0.5386
  42
0
  0
SEQEND
  0
POLYLINE
  8
Bottom_Silk
  6
CONTINUOUS
  66
1
  70
0
  40
0.0031
  41
0.0031
  0
VERTEX
  8
Bottom_Silk
  10
0.1272
  20
0.5539
  42
1
  0
VERTEX
  8
Bottom_Silk
  10
0.1303
  20
0.5539
  42
1
  0
VERTEX
  8
Bottom_Silk
  10
0.1272
  20
0.5539
  42
1
  0
SEQEND
  0
POLYLINE
  8
Bottom_Silk
  6
CONTINUOUS
  66
1
  70
0
  40
0.0031
  41
0.0031
  0
VERTEX
  8
Bottom_Silk
  10
0.1272
  20
0.5386
  42
1
  0
VERTEX
  8
Bottom_Silk
  10
0.1303
  20
0.5386
  42
1
  0
VERTEX
  8
Bottom_Silk
  10
0.1272
  20
0.5386
  42
1
  0
SEQEND
  0
POLYLINE
  8
Bottom_Silk
  6
CONTINUOUS
  66
1
  70
0
  40
0.0062
  41
0.0062
  0
VERTEX
  8
Bottom_Silk
  10
0.1068
  20
0.5597
  42
0
  0
VERTEX
  8
Bottom_Silk
  10
0.1106
  20
0.5578
  42
0
  0
VERTEX
  8
Bottom_Silk
  10
0.1145
  20
0.5539
  42
0
  0
VERTEX
  8
Bottom_Silk
  10
0.1164
  20
0.5482
  42
0
  0
VERTEX
  8
Bottom_Silk
  10
0.1164
  20
0.5444
  42
0
  0
VERTEX
  8
Bottom_Silk
  10
0.1145
  20
0.5386
  42
0
  0
VERTEX
  8
Bottom_Silk
  10
0.1106
  20
0.5348
  42
0
  0
VERTEX
  8
Bottom_Silk
  10
0.1068
  20
0.5329
  42
0
  0
VERTEX
  8
Bottom_Silk
  10
0.1011
  20
0.5329
  42
0
  0
VERTEX
  8
Bottom_Silk
  10
0.0972
  20
0.5348
  42
0
  0
VERTEX
  8
Bottom_Silk
  10
0.0934
  20
0.5386
  42
0
  0
VERTEX
  8
Bottom_Silk
  10
0.0915
  20
0.5444
  42
0
  0
VERTEX
  8
Bottom_Silk
  10
0.0915
  20
0.5482
  42
0
  0
VERTEX
  8
Bottom_Silk
  10
0.0934
  20
0.5539
  42
0
  0
VERTEX
  8
Bottom_Silk
  10
0.0972
  20
0.5578
  42
0
  0
VERTEX
  8
Bottom_Silk
  10
0.1011
  20
0.5597
  42
0
  0
VERTEX
  8
Bottom_Silk
  10
0.1068
  20
0.5597
  42
0
  0
SEQEND
  0
POLYLINE
  8
Bottom_Silk
  6
CONTINUOUS
  66
1
  70
0
  40
0.0031
  41
0.0031
  0
VERTEX
  8
Bottom_Silk
  10
0.1053
  20
0.5597
  42
1
  0
VERTEX
  8
Bottom_Silk
  10
0.1084
  20
0.5597
  42
1
  0
VERTEX
  8
Bottom_Silk
  10
0.1053
  20
0.5597
  42
1
  0
SEQEND
  0
POLYLINE
  8
Bottom_Silk
  6
CONTINUOUS
  66
1
  70
0
  40
0.0062
  41
0.0062
  0
VERTEX
  8
Bottom_Silk
  10
0.0772
  20
0.5367
  42
0
  0
VERTEX
  8
Bottom_Silk
  10
0.0791
  20
0.5348
  42
0
  0
VERTEX
  8
Bottom_Silk
  10
0.0772
  20
0.5329
  42
0
  0
VERTEX
  8
Bottom_Silk
  10
0.0753
  20
0.5348
  42
0
  0
VERTEX
  8
Bottom_Silk
  10
0.0772
  20
0.5367
  42
0
  0
SEQEND
  0
POLYLINE
  8
Bottom_Silk
  6
CONTINUOUS
  66
1
  70
0
  40
0.0031
  41
0.0031
  0
VERTEX
  8
Bottom_Silk
  10
0.0757
  20
0.5367
  42
1
  0
VERTEX
  8
Bottom_Silk
  10
0.0788
  20
0.5367
  42
1
  0
VERTEX
  8
Bottom_Silk
  10
0.0757
  20
0.5367
  42
1
  0
SEQEND
  0
POLYLINE
  8
Bottom_Silk
  6
CONTINUOUS
  66
1
  70
0
  40
0.0062
  41
0.0062
  0
VERTEX
  8
Bottom_Silk
  10
0.0629
  20
0.5731
  42
0
  0
VERTEX
  8
Bottom_Silk
  10
0.0629
  20
0.5329
  42
0
  0
SEQEND
  0
POLYLINE
  8
Bottom_Silk
  6
CONTINUOUS
  66
1
  70
0
  40
0.0031
  41
0.0031
  0
VERTEX
  8
Bottom_Silk
  10
0.0614
  20
0.5731
  42
1
  0
VERTEX
  8
Bottom_Silk
  10
0.0645
  20
0.5731
  42
1
  0
VERTEX
  8
Bottom_Silk
  10
0.0614
  20
0.5731
  42
1
  0
SEQEND
  0
POLYLINE
  8
Bottom_Silk
  6
CONTINUOUS
  66
1
  70
0
  40
0.0031
  41
0.0031
  0
VERTEX
  8
Bottom_Silk
  10
0.0614
  20
0.5329
  42
1
  0
VERTEX
  8
Bottom_Silk
  10
0.0645
  20
0.5329
  42
1
  0
VERTEX
  8
Bottom_Silk
  10
0.0614
  20
0.5329
  42
1
  0
SEQEND
  0
POLYLINE
  8
Bottom_Silk
  6
CONTINUOUS
  66
1
  70
0
  40
0.0062
  41
0.0062
  0
VERTEX
  8
Bottom_Silk
  10
0.0438
  20
0.5597
  42
0
  0
VERTEX
  8
Bottom_Silk
  10
0.0629
  20
0.5405
  42
0
  0
SEQEND
  0
POLYLINE
  8
Bottom_Silk
  6
CONTINUOUS
  66
1
  70
0
  40
0.0031
  41
0.0031
  0
VERTEX
  8
Bottom_Silk
  10
0.0423
  20
0.5597
  42
1
  0
VERTEX
  8
Bottom_Silk
  10
0.0453
  20
0.5597
  42
1
  0
VERTEX
  8
Bottom_Silk
  10
0.0423
  20
0.5597
  42
1
  0
SEQEND
  0
POLYLINE
  8
Bottom_Silk
  6
CONTINUOUS
  66
1
  70
0
  40
0.0031
  41
0.0031
  0
VERTEX
  8
Bottom_Silk
  10
0.0614
  20
0.5405
  42
1
  0
VERTEX
  8
Bottom_Silk
  10
0.0645
  20
0.5405
  42
1
  0
VERTEX
  8
Bottom_Silk
  10
0.0614
  20
0.5405
  42
1
  0
SEQEND
  0
POLYLINE
  8
Bottom_Silk
  6
CONTINUOUS
  66
1
  70
0
  40
0.0062
  41
0.0062
  0
VERTEX
  8
Bottom_Silk
  10
0.0553
  20
0.5482
  42
0
  0
VERTEX
  8
Bottom_Silk
  10
0.0419
  20
0.5329
  42
0
  0
SEQEND
  0
POLYLINE
  8
Bottom_Silk
  6
CONTINUOUS
  66
1
  70
0
  40
0.0031
  41
0.0031
  0
VERTEX
  8
Bottom_Silk
  10
0.0538
  20
0.5482
  42
1
  0
VERTEX
  8
Bottom_Silk
  10
0.0568
  20
0.5482
  42
1
  0
VERTEX
  8
Bottom_Silk
  10
0.0538
  20
0.5482
  42
1
  0
SEQEND
  0
POLYLINE
  8
Bottom_Silk
  6
CONTINUOUS
  66
1
  70
0
  40
0.0031
  41
0.0031
  0
VERTEX
  8
Bottom_Silk
  10
0.0404
  20
0.5329
  42
1
  0
VERTEX
  8
Bottom_Silk
  10
0.0434
  20
0.5329
  42
1
  0
VERTEX
  8
Bottom_Silk
  10
0.0404
  20
0.5329
  42
1
  0
SEQEND
  0
POLYLINE
  8
Bottom_Silk
  6
CONTINUOUS
  66
1
  70
0
  40
0.0062
  41
0.0062
  0
VERTEX
  8
Bottom_Silk
  10
0.0295
  20
0.5597
  42
0
  0
VERTEX
  8
Bottom_Silk
  10
0.0295
  20
0.5329
  42
0
  0
SEQEND
  0
POLYLINE
  8
Bottom_Silk
  6
CONTINUOUS
  66
1
  70
0
  40
0.0031
  41
0.0031
  0
VERTEX
  8
Bottom_Silk
  10
0.028
  20
0.5597
  42
1
  0
VERTEX
  8
Bottom_Silk
  10
0.0311
  20
0.5597
  42
1
  0
VERTEX
  8
Bottom_Silk
  10
0.028
  20
0.5597
  42
1
  0
SEQEND
  0
POLYLINE
  8
Bottom_Silk
  6
CONTINUOUS
  66
1
  70
0
  40
0.0031
  41
0.0031
  0
VERTEX
  8
Bottom_Silk
  10
0.028
  20
0.5329
  42
1
  0
VERTEX
  8
Bottom_Silk
  10
0.0311
  20
0.5329
  42
1
  0
VERTEX
  8
Bottom_Silk
  10
0.028
  20
0.5329
  42
1
  0
SEQEND
  0
POLYLINE
  8
Bottom_Silk
  6
CONTINUOUS
  66
1
  70
0
  40
0.0062
  41
0.0062
  0
VERTEX
  8
Bottom_Silk
  10
0.0295
  20
0.5482
  42
0
  0
VERTEX
  8
Bottom_Silk
  10
0.0276
  20
0.5539
  42
0
  0
VERTEX
  8
Bottom_Silk
  10
0.0238
  20
0.5578
  42
0
  0
VERTEX
  8
Bottom_Silk
  10
0.02
  20
0.5597
  42
0
  0
VERTEX
  8
Bottom_Silk
  10
0.0142
  20
0.5597
  42
0
  0
SEQEND
  0
POLYLINE
  8
Bottom_Silk
  6
CONTINUOUS
  66
1
  70
0
  40
0.0031
  41
0.0031
  0
VERTEX
  8
Bottom_Silk
  10
0.028
  20
0.5482
  42
1
  0
VERTEX
  8
Bottom_Silk
  10
0.0311
  20
0.5482
  42
1
  0
VERTEX
  8
Bottom_Silk
  10
0.028
  20
0.5482
  42
1
  0
SEQEND
  0
POLYLINE
  8
Bottom_Silk
  6
CONTINUOUS
  66
1
  70
0
  40
0.0031
  41
0.0031
  0
VERTEX
  8
Bottom_Silk
  10
0.0127
  20
0.5597
  42
1
  0
VERTEX
  8
Bottom_Silk
  10
0.0157
  20
0.5597
  42
1
  0
VERTEX
  8
Bottom_Silk
  10
0.0127
  20
0.5597
  42
1
  0
SEQEND
  0
POLYLINE
  8
Bottom_Silk
  6
CONTINUOUS
  66
1
  70
0
  40
0.0062
  41
0.0062
  0
VERTEX
  8
Bottom_Silk
  10
0.498
  20
0.4892
  42
0
  0
VERTEX
  8
Bottom_Silk
  10
0.4827
  20
0.449
  42
0
  0
VERTEX
  8
Bottom_Silk
  10
0.4674
  20
0.4892
  42
0
  0
SEQEND
  0
POLYLINE
  8
Bottom_Silk
  6
CONTINUOUS
  66
1
  70
0
  40
0.0031
  41
0.0031
  0
VERTEX
  8
Bottom_Silk
  10
0.4965
  20
0.4892
  42
1
  0
VERTEX
  8
Bottom_Silk
  10
0.4996
  20
0.4892
  42
1
  0
VERTEX
  8
Bottom_Silk
  10
0.4965
  20
0.4892
  42
1
  0
SEQEND
  0
POLYLINE
  8
Bottom_Silk
  6
CONTINUOUS
  66
1
  70
0
  40
0.0031
  41
0.0031
  0
VERTEX
  8
Bottom_Silk
  10
0.4659
  20
0.4892
  42
1
  0
VERTEX
  8
Bottom_Silk
  10
0.469
  20
0.4892
  42
1
  0
VERTEX
  8
Bottom_Silk
  10
0.4659
  20
0.4892
  42
1
  0
SEQEND
  0
POLYLINE
  8
Bottom_Silk
  6
CONTINUOUS
  66
1
  70
0
  40
0.0062
  41
0.0062
  0
VERTEX
  8
Bottom_Silk
  10
0.4551
  20
0.4815
  42
0
  0
VERTEX
  8
Bottom_Silk
  10
0.4512
  20
0.4834
  42
0
  0
VERTEX
  8
Bottom_Silk
  10
0.4455
  20
0.4891
  42
0
  0
VERTEX
  8
Bottom_Silk
  10
0.4455
  20
0.449
  42
0
  0
SEQEND
  0
POLYLINE
  8
Bottom_Silk
  6
CONTINUOUS
  66
1
  70
0
  40
0.0031
  41
0.0031
  0
VERTEX
  8
Bottom_Silk
  10
0.4535
  20
0.4815
  42
1
  0
VERTEX
  8
Bottom_Silk
  10
0.4566
  20
0.4815
  42
1
  0
VERTEX
  8
Bottom_Silk
  10
0.4535
  20
0.4815
  42
1
  0
SEQEND
  0
POLYLINE
  8
Bottom_Silk
  6
CONTINUOUS
  66
1
  70
0
  40
0.0031
  41
0.0031
  0
VERTEX
  8
Bottom_Silk
  10
0.4439
  20
0.449
  42
1
  0
VERTEX
  8
Bottom_Silk
  10
0.447
  20
0.449
  42
1
  0
VERTEX
  8
Bottom_Silk
  10
0.4439
  20
0.449
  42
1
  0
SEQEND
  0
POLYLINE
  8
Bottom_Silk
  6
CONTINUOUS
  66
1
  70
0
  40
0.0062
  41
0.0062
  0
VERTEX
  8
Bottom_Silk
  10
0.4312
  20
0.4528
  42
0
  0
VERTEX
  8
Bottom_Silk
  10
0.4331
  20
0.4509
  42
0
  0
VERTEX
  8
Bottom_Silk
  10
0.4312
  20
0.449
  42
0
  0
VERTEX
  8
Bottom_Silk
  10
0.4293
  20
0.4509
  42
0
  0
VERTEX
  8
Bottom_Silk
  10
0.4312
  20
0.4528
  42
0
  0
SEQEND
  0
POLYLINE
  8
Bottom_Silk
  6
CONTINUOUS
  66
1
  70
0
  40
0.0031
  41
0.0031
  0
VERTEX
  8
Bottom_Silk
  10
0.4297
  20
0.4528
  42
1
  0
VERTEX
  8
Bottom_Silk
  10
0.4328
  20
0.4528
  42
1
  0
VERTEX
  8
Bottom_Silk
  10
0.4297
  20
0.4528
  42
1
  0
SEQEND
  0
POLYLINE
  8
Bottom_Silk
  6
CONTINUOUS
  66
1
  70
0
  40
0.0062
  41
0.0062
  0
VERTEX
  8
Bottom_Silk
  10
0.4054
  20
0.4891
  42
0
  0
VERTEX
  8
Bottom_Silk
  10
0.4112
  20
0.4872
  42
0
  0
VERTEX
  8
Bottom_Silk
  10
0.415
  20
0.4815
  42
0
  0
VERTEX
  8
Bottom_Silk
  10
0.4169
  20
0.4719
  42
0
  0
VERTEX
  8
Bottom_Silk
  10
0.4169
  20
0.4662
  42
0
  0
VERTEX
  8
Bottom_Silk
  10
0.415
  20
0.4566
  42
0
  0
VERTEX
  8
Bottom_Silk
  10
0.4112
  20
0.4509
  42
0
  0
VERTEX
  8
Bottom_Silk
  10
0.4054
  20
0.449
  42
0
  0
VERTEX
  8
Bottom_Silk
  10
0.4016
  20
0.449
  42
0
  0
VERTEX
  8
Bottom_Silk
  10
0.3959
  20
0.4509
  42
0
  0
VERTEX
  8
Bottom_Silk
  10
0.3921
  20
0.4566
  42
0
  0
VERTEX
  8
Bottom_Silk
  10
0.3901
  20
0.4662
  42
0
  0
VERTEX
  8
Bottom_Silk
  10
0.3901
  20
0.4719
  42
0
  0
VERTEX
  8
Bottom_Silk
  10
0.3921
  20
0.4815
  42
0
  0
VERTEX
  8
Bottom_Silk
  10
0.3959
  20
0.4872
  42
0
  0
VERTEX
  8
Bottom_Silk
  10
0.4016
  20
0.4891
  42
0
  0
VERTEX
  8
Bottom_Silk
  10
0.4054
  20
0.4891
  42
0
  0
SEQEND
  0
POLYLINE
  8
Bottom_Silk
  6
CONTINUOUS
  66
1
  70
0
  40
0.0031
  41
0.0031
  0
VERTEX
  8
Bottom_Silk
  10
0.4039
  20
0.4891
  42
1
  0
VERTEX
  8
Bottom_Silk
  10
0.407
  20
0.4891
  42
1
  0
VERTEX
  8
Bottom_Silk
  10
0.4039
  20
0.4891
  42
1
  0
SEQEND
  0
POLYLINE
  8
Bottom_Silk
  6
CONTINUOUS
  66
1
  70
0
  40
0.0062
  41
0.0062
  0
VERTEX
  8
Bottom_Silk
  10
0.3921
  20
0.4815
  42
0
  0
VERTEX
  8
Bottom_Silk
  10
0.415
  20
0.4566
  42
0
  0
SEQEND
  0
POLYLINE
  8
Bottom_Silk
  6
CONTINUOUS
  66
1
  70
0
  40
0.0031
  41
0.0031
  0
VERTEX
  8
Bottom_Silk
  10
0.3905
  20
0.4815
  42
1
  0
VERTEX
  8
Bottom_Silk
  10
0.3936
  20
0.4815
  42
1
  0
VERTEX
  8
Bottom_Silk
  10
0.3905
  20
0.4815
  42
1
  0
SEQEND
  0
POLYLINE
  8
Bottom_Silk
  6
CONTINUOUS
  66
1
  70
0
  40
0.0031
  41
0.0031
  0
VERTEX
  8
Bottom_Silk
  10
0.4135
  20
0.4566
  42
1
  0
VERTEX
  8
Bottom_Silk
  10
0.4166
  20
0.4566
  42
1
  0
VERTEX
  8
Bottom_Silk
  10
0.4135
  20
0.4566
  42
1
  0
SEQEND
  0
ENDSEC
  0
EOF
