  0
SECTION
  2
HEADER
  9
$ACADVER
  1
AC1009
  9
$ANGDIR
  70
0
  9
$CECOLOR
  62
256
  9
$CELTYPE
  6
BYLAYER
  9
$EXTMIN
  10
0.0
  20
0.0
  9
$EXTMAX
  10
1.311
  20
0.9843
  9
$FILLMODE
  70
1
  9
$MIRRTEXT
  70
0
  0
ENDSEC
  0
SECTION
  2
TABLES
  0
TABLE
  2
LAYER
  70
17
  0
LAYER
  2
Top_Assy
  70
64
  62
1
  6
CONTINUOUS
  0
LAYER
  2
Top_Silk
  70
64
  62
2
  6
CONTINUOUS
  0
LAYER
  2
Top_Mask
  70
64
  62
3
  6
CONTINUOUS
  0
LAYER
  2
Top_Paste
  70
64
  62
4
  6
CONTINUOUS
  0
LAYER
  2
Top
  70
64
  62
5
  6
CONTINUOUS
  0
LAYER
  2
Bottom
  70
64
  62
6
  6
CONTINUOUS
  0
LAYER
  2
Drill_Top
  70
64
  62
7
  6
CONTINUOUS
  0
LAYER
  2
Drill_Bottom
  70
64
  62
8
  6
CONTINUOUS
  0
LAYER
  2
Bottom_Paste
  70
64
  62
9
  6
CONTINUOUS
  0
LAYER
  2
Bottom_Mask
  70
64
  62
10
  6
CONTINUOUS
  0
LAYER
  2
Bottom_Silk
  70
64
  62
11
  6
CONTINUOUS
  0
LAYER
  2
Bottom_Assy
  70
64
  62
12
  6
CONTINUOUS
  0
LAYER
  2
Board_Outline
  70
64
  62
13
  6
CONTINUOUS
  0
LAYER
  2
Top_Dimension
  70
64
  62
14
  6
CONTINUOUS
  0
LAYER
  2
Bottom_Dimension
  70
64
  62
15
  6
CONTINUOUS
  0
ENDTAB
  0
ENDSEC
  0
SECTION
  2
ENTITIES
  0
SOLID
  8
Top_Assy
  10
1.114
  20
0.5277
  11
1.0904
  21
0.5277
  12
1.114
  22
0.5395
  13
1.0904
  23
0.5395
  0
SOLID
  8
Top_Assy
  10
1.114
  20
0.4957
  11
1.0904
  21
0.4957
  12
1.114
  22
0.5075
  13
1.0904
  23
0.5075
  0
POLYLINE
  8
Top_Assy
  6
CONTINUOUS
  66
1
  70
0
  40
0.006
  41
0.006
  0
VERTEX
  8
Top_Assy
  10
1.1112
  20
0.5274
  42
0
  0
VERTEX
  8
Top_Assy
  10
1.1112
  20
0.5081
  42
0
  0
SEQEND
  0
POLYLINE
  8
Top_Assy
  6
CONTINUOUS
  66
1
  70
0
  40
0.003
  41
0.003
  0
VERTEX
  8
Top_Assy
  10
1.1097
  20
0.5274
  42
1
  0
VERTEX
  8
Top_Assy
  10
1.1127
  20
0.5274
  42
1
  0
VERTEX
  8
Top_Assy
  10
1.1097
  20
0.5274
  42
1
  0
SEQEND
  0
POLYLINE
  8
Top_Assy
  6
CONTINUOUS
  66
1
  70
0
  40
0.003
  41
0.003
  0
VERTEX
  8
Top_Assy
  10
1.1097
  20
0.5081
  42
1
  0
VERTEX
  8
Top_Assy
  10
1.1127
  20
0.5081
  42
1
  0
VERTEX
  8
Top_Assy
  10
1.1097
  20
0.5081
  42
1
  0
SEQEND
  0
POLYLINE
  8
Top_Assy
  6
CONTINUOUS
  66
1
  70
0
  40
0.006
  41
0.006
  0
VERTEX
  8
Top_Assy
  10
1.0935
  20
0.5081
  42
0
  0
VERTEX
  8
Top_Assy
  10
1.0935
  20
0.5274
  42
0
  0
SEQEND
  0
POLYLINE
  8
Top_Assy
  6
CONTINUOUS
  66
1
  70
0
  40
0.003
  41
0.003
  0
VERTEX
  8
Top_Assy
  10
1.092
  20
0.5081
  42
1
  0
VERTEX
  8
Top_Assy
  10
1.095
  20
0.5081
  42
1
  0
VERTEX
  8
Top_Assy
  10
1.092
  20
0.5081
  42
1
  0
SEQEND
  0
POLYLINE
  8
Top_Assy
  6
CONTINUOUS
  66
1
  70
0
  40
0.003
  41
0.003
  0
VERTEX
  8
Top_Assy
  10
1.092
  20
0.5274
  42
1
  0
VERTEX
  8
Top_Assy
  10
1.095
  20
0.5274
  42
1
  0
VERTEX
  8
Top_Assy
  10
1.092
  20
0.5274
  42
1
  0
SEQEND
  0
SOLID
  8
Top_Assy
  10
0.925
  20
0.7754
  11
0.9132
  21
0.7754
  12
0.925
  22
0.7518
  13
0.9132
  23
0.7518
  0
SOLID
  8
Top_Assy
  10
0.957
  20
0.7754
  11
0.9452
  21
0.7754
  12
0.957
  22
0.7518
  13
0.9452
  23
0.7518
  0
POLYLINE
  8
Top_Assy
  6
CONTINUOUS
  66
1
  70
0
  40
0.006
  41
0.006
  0
VERTEX
  8
Top_Assy
  10
0.9254
  20
0.7726
  42
0
  0
VERTEX
  8
Top_Assy
  10
0.9447
  20
0.7726
  42
0
  0
SEQEND
  0
POLYLINE
  8
Top_Assy
  6
CONTINUOUS
  66
1
  70
0
  40
0.003
  41
0.003
  0
VERTEX
  8
Top_Assy
  10
0.9239
  20
0.7726
  42
1
  0
VERTEX
  8
Top_Assy
  10
0.9269
  20
0.7726
  42
1
  0
VERTEX
  8
Top_Assy
  10
0.9239
  20
0.7726
  42
1
  0
SEQEND
  0
POLYLINE
  8
Top_Assy
  6
CONTINUOUS
  66
1
  70
0
  40
0.003
  41
0.003
  0
VERTEX
  8
Top_Assy
  10
0.9432
  20
0.7726
  42
1
  0
VERTEX
  8
Top_Assy
  10
0.9462
  20
0.7726
  42
1
  0
VERTEX
  8
Top_Assy
  10
0.9432
  20
0.7726
  42
1
  0
SEQEND
  0
POLYLINE
  8
Top_Assy
  6
CONTINUOUS
  66
1
  70
0
  40
0.006
  41
0.006
  0
VERTEX
  8
Top_Assy
  10
0.9447
  20
0.755
  42
0
  0
VERTEX
  8
Top_Assy
  10
0.9254
  20
0.755
  42
0
  0
SEQEND
  0
POLYLINE
  8
Top_Assy
  6
CONTINUOUS
  66
1
  70
0
  40
0.003
  41
0.003
  0
VERTEX
  8
Top_Assy
  10
0.9432
  20
0.755
  42
1
  0
VERTEX
  8
Top_Assy
  10
0.9462
  20
0.755
  42
1
  0
VERTEX
  8
Top_Assy
  10
0.9432
  20
0.755
  42
1
  0
SEQEND
  0
POLYLINE
  8
Top_Assy
  6
CONTINUOUS
  66
1
  70
0
  40
0.003
  41
0.003
  0
VERTEX
  8
Top_Assy
  10
0.9239
  20
0.755
  42
1
  0
VERTEX
  8
Top_Assy
  10
0.9269
  20
0.755
  42
1
  0
VERTEX
  8
Top_Assy
  10
0.9239
  20
0.755
  42
1
  0
SEQEND
  0
SOLID
  8
Top_Assy
  10
0.9447
  20
0.236
  11
0.9329
  21
0.236
  12
0.9447
  22
0.2124
  13
0.9329
  23
0.2124
  0
SOLID
  8
Top_Assy
  10
0.9767
  20
0.236
  11
0.9649
  21
0.236
  12
0.9767
  22
0.2124
  13
0.9649
  23
0.2124
  0
POLYLINE
  8
Top_Assy
  6
CONTINUOUS
  66
1
  70
0
  40
0.006
  41
0.006
  0
VERTEX
  8
Top_Assy
  10
0.9451
  20
0.2332
  42
0
  0
VERTEX
  8
Top_Assy
  10
0.9644
  20
0.2332
  42
0
  0
SEQEND
  0
POLYLINE
  8
Top_Assy
  6
CONTINUOUS
  66
1
  70
0
  40
0.003
  41
0.003
  0
VERTEX
  8
Top_Assy
  10
0.9436
  20
0.2332
  42
1
  0
VERTEX
  8
Top_Assy
  10
0.9466
  20
0.2332
  42
1
  0
VERTEX
  8
Top_Assy
  10
0.9436
  20
0.2332
  42
1
  0
SEQEND
  0
POLYLINE
  8
Top_Assy
  6
CONTINUOUS
  66
1
  70
0
  40
0.003
  41
0.003
  0
VERTEX
  8
Top_Assy
  10
0.9629
  20
0.2332
  42
1
  0
VERTEX
  8
Top_Assy
  10
0.9659
  20
0.2332
  42
1
  0
VERTEX
  8
Top_Assy
  10
0.9629
  20
0.2332
  42
1
  0
SEQEND
  0
POLYLINE
  8
Top_Assy
  6
CONTINUOUS
  66
1
  70
0
  40
0.006
  41
0.006
  0
VERTEX
  8
Top_Assy
  10
0.9644
  20
0.2156
  42
0
  0
VERTEX
  8
Top_Assy
  10
0.9451
  20
0.2156
  42
0
  0
SEQEND
  0
POLYLINE
  8
Top_Assy
  6
CONTINUOUS
  66
1
  70
0
  40
0.003
  41
0.003
  0
VERTEX
  8
Top_Assy
  10
0.9629
  20
0.2156
  42
1
  0
VERTEX
  8
Top_Assy
  10
0.9659
  20
0.2156
  42
1
  0
VERTEX
  8
Top_Assy
  10
0.9629
  20
0.2156
  42
1
  0
SEQEND
  0
POLYLINE
  8
Top_Assy
  6
CONTINUOUS
  66
1
  70
0
  40
0.003
  41
0.003
  0
VERTEX
  8
Top_Assy
  10
0.9436
  20
0.2156
  42
1
  0
VERTEX
  8
Top_Assy
  10
0.9466
  20
0.2156
  42
1
  0
VERTEX
  8
Top_Assy
  10
0.9436
  20
0.2156
  42
1
  0
SEQEND
  0
SOLID
  8
Top_Assy
  10
0.4723
  20
0.673
  11
0.4605
  21
0.673
  12
0.4723
  22
0.6494
  13
0.4605
  23
0.6494
  0
SOLID
  8
Top_Assy
  10
0.5043
  20
0.673
  11
0.4925
  21
0.673
  12
0.5043
  22
0.6494
  13
0.4925
  23
0.6494
  0
POLYLINE
  8
Top_Assy
  6
CONTINUOUS
  66
1
  70
0
  40
0.006
  41
0.006
  0
VERTEX
  8
Top_Assy
  10
0.4726
  20
0.6702
  42
0
  0
VERTEX
  8
Top_Assy
  10
0.4919
  20
0.6702
  42
0
  0
SEQEND
  0
POLYLINE
  8
Top_Assy
  6
CONTINUOUS
  66
1
  70
0
  40
0.003
  41
0.003
  0
VERTEX
  8
Top_Assy
  10
0.4711
  20
0.6702
  42
1
  0
VERTEX
  8
Top_Assy
  10
0.4741
  20
0.6702
  42
1
  0
VERTEX
  8
Top_Assy
  10
0.4711
  20
0.6702
  42
1
  0
SEQEND
  0
POLYLINE
  8
Top_Assy
  6
CONTINUOUS
  66
1
  70
0
  40
0.003
  41
0.003
  0
VERTEX
  8
Top_Assy
  10
0.4904
  20
0.6702
  42
1
  0
VERTEX
  8
Top_Assy
  10
0.4934
  20
0.6702
  42
1
  0
VERTEX
  8
Top_Assy
  10
0.4904
  20
0.6702
  42
1
  0
SEQEND
  0
POLYLINE
  8
Top_Assy
  6
CONTINUOUS
  66
1
  70
0
  40
0.006
  41
0.006
  0
VERTEX
  8
Top_Assy
  10
0.4919
  20
0.6526
  42
0
  0
VERTEX
  8
Top_Assy
  10
0.4726
  20
0.6526
  42
0
  0
SEQEND
  0
POLYLINE
  8
Top_Assy
  6
CONTINUOUS
  66
1
  70
0
  40
0.003
  41
0.003
  0
VERTEX
  8
Top_Assy
  10
0.4904
  20
0.6526
  42
1
  0
VERTEX
  8
Top_Assy
  10
0.4934
  20
0.6526
  42
1
  0
VERTEX
  8
Top_Assy
  10
0.4904
  20
0.6526
  42
1
  0
SEQEND
  0
POLYLINE
  8
Top_Assy
  6
CONTINUOUS
  66
1
  70
0
  40
0.003
  41
0.003
  0
VERTEX
  8
Top_Assy
  10
0.4711
  20
0.6526
  42
1
  0
VERTEX
  8
Top_Assy
  10
0.4741
  20
0.6526
  42
1
  0
VERTEX
  8
Top_Assy
  10
0.4711
  20
0.6526
  42
1
  0
SEQEND
  0
SOLID
  8
Top_Assy
  10
0.4762
  20
0.3226
  11
0.4644
  21
0.3226
  12
0.4762
  22
0.299
  13
0.4644
  23
0.299
  0
SOLID
  8
Top_Assy
  10
0.5082
  20
0.3226
  11
0.4964
  21
0.3226
  12
0.5082
  22
0.299
  13
0.4964
  23
0.299
  0
POLYLINE
  8
Top_Assy
  6
CONTINUOUS
  66
1
  70
0
  40
0.006
  41
0.006
  0
VERTEX
  8
Top_Assy
  10
0.4766
  20
0.3198
  42
0
  0
VERTEX
  8
Top_Assy
  10
0.4959
  20
0.3198
  42
0
  0
SEQEND
  0
POLYLINE
  8
Top_Assy
  6
CONTINUOUS
  66
1
  70
0
  40
0.003
  41
0.003
  0
VERTEX
  8
Top_Assy
  10
0.4751
  20
0.3198
  42
1
  0
VERTEX
  8
Top_Assy
  10
0.4781
  20
0.3198
  42
1
  0
VERTEX
  8
Top_Assy
  10
0.4751
  20
0.3198
  42
1
  0
SEQEND
  0
POLYLINE
  8
Top_Assy
  6
CONTINUOUS
  66
1
  70
0
  40
0.003
  41
0.003
  0
VERTEX
  8
Top_Assy
  10
0.4944
  20
0.3198
  42
1
  0
VERTEX
  8
Top_Assy
  10
0.4974
  20
0.3198
  42
1
  0
VERTEX
  8
Top_Assy
  10
0.4944
  20
0.3198
  42
1
  0
SEQEND
  0
POLYLINE
  8
Top_Assy
  6
CONTINUOUS
  66
1
  70
0
  40
0.006
  41
0.006
  0
VERTEX
  8
Top_Assy
  10
0.4959
  20
0.3022
  42
0
  0
VERTEX
  8
Top_Assy
  10
0.4766
  20
0.3022
  42
0
  0
SEQEND
  0
POLYLINE
  8
Top_Assy
  6
CONTINUOUS
  66
1
  70
0
  40
0.003
  41
0.003
  0
VERTEX
  8
Top_Assy
  10
0.4944
  20
0.3022
  42
1
  0
VERTEX
  8
Top_Assy
  10
0.4974
  20
0.3022
  42
1
  0
VERTEX
  8
Top_Assy
  10
0.4944
  20
0.3022
  42
1
  0
SEQEND
  0
POLYLINE
  8
Top_Assy
  6
CONTINUOUS
  66
1
  70
0
  40
0.003
  41
0.003
  0
VERTEX
  8
Top_Assy
  10
0.4751
  20
0.3022
  42
1
  0
VERTEX
  8
Top_Assy
  10
0.4781
  20
0.3022
  42
1
  0
VERTEX
  8
Top_Assy
  10
0.4751
  20
0.3022
  42
1
  0
SEQEND
  0
SOLID
  8
Top_Assy
  10
0.1081
  20
0.5494
  11
0.1281
  21
0.5494
  12
0.1081
  22
0.5294
  13
0.1281
  23
0.5294
  0
SOLID
  8
Top_Assy
  10
0.1081
  20
0.4431
  11
0.1281
  21
0.4431
  12
0.1081
  22
0.4231
  13
0.1281
  23
0.4231
  0
SOLID
  8
Top_Assy
  10
1.051
  20
0.5277
  11
1.0274
  21
0.5277
  12
1.051
  22
0.5395
  13
1.0274
  23
0.5395
  0
SOLID
  8
Top_Assy
  10
1.051
  20
0.4957
  11
1.0274
  21
0.4957
  12
1.051
  22
0.5075
  13
1.0274
  23
0.5075
  0
POLYLINE
  8
Top_Assy
  6
CONTINUOUS
  66
1
  70
0
  40
0.006
  41
0.006
  0
VERTEX
  8
Top_Assy
  10
1.0482
  20
0.5274
  42
0
  0
VERTEX
  8
Top_Assy
  10
1.0482
  20
0.5081
  42
0
  0
SEQEND
  0
POLYLINE
  8
Top_Assy
  6
CONTINUOUS
  66
1
  70
0
  40
0.003
  41
0.003
  0
VERTEX
  8
Top_Assy
  10
1.0467
  20
0.5274
  42
1
  0
VERTEX
  8
Top_Assy
  10
1.0497
  20
0.5274
  42
1
  0
VERTEX
  8
Top_Assy
  10
1.0467
  20
0.5274
  42
1
  0
SEQEND
  0
POLYLINE
  8
Top_Assy
  6
CONTINUOUS
  66
1
  70
0
  40
0.003
  41
0.003
  0
VERTEX
  8
Top_Assy
  10
1.0467
  20
0.5081
  42
1
  0
VERTEX
  8
Top_Assy
  10
1.0497
  20
0.5081
  42
1
  0
VERTEX
  8
Top_Assy
  10
1.0467
  20
0.5081
  42
1
  0
SEQEND
  0
POLYLINE
  8
Top_Assy
  6
CONTINUOUS
  66
1
  70
0
  40
0.006
  41
0.006
  0
VERTEX
  8
Top_Assy
  10
1.0306
  20
0.5081
  42
0
  0
VERTEX
  8
Top_Assy
  10
1.0306
  20
0.5274
  42
0
  0
SEQEND
  0
POLYLINE
  8
Top_Assy
  6
CONTINUOUS
  66
1
  70
0
  40
0.003
  41
0.003
  0
VERTEX
  8
Top_Assy
  10
1.0291
  20
0.5081
  42
1
  0
VERTEX
  8
Top_Assy
  10
1.0321
  20
0.5081
  42
1
  0
VERTEX
  8
Top_Assy
  10
1.0291
  20
0.5081
  42
1
  0
SEQEND
  0
POLYLINE
  8
Top_Assy
  6
CONTINUOUS
  66
1
  70
0
  40
0.003
  41
0.003
  0
VERTEX
  8
Top_Assy
  10
1.0291
  20
0.5274
  42
1
  0
VERTEX
  8
Top_Assy
  10
1.0321
  20
0.5274
  42
1
  0
VERTEX
  8
Top_Assy
  10
1.0291
  20
0.5274
  42
1
  0
SEQEND
  0
SOLID
  8
Top_Assy
  10
0.7364
  20
0.4805
  11
0.7482
  21
0.4805
  12
0.7364
  22
0.5041
  13
0.7482
  23
0.5041
  0
SOLID
  8
Top_Assy
  10
0.7044
  20
0.4805
  11
0.7162
  21
0.4805
  12
0.7044
  22
0.5041
  13
0.7162
  23
0.5041
  0
POLYLINE
  8
Top_Assy
  6
CONTINUOUS
  66
1
  70
0
  40
0.006
  41
0.006
  0
VERTEX
  8
Top_Assy
  10
0.736
  20
0.4833
  42
0
  0
VERTEX
  8
Top_Assy
  10
0.7167
  20
0.4833
  42
0
  0
SEQEND
  0
POLYLINE
  8
Top_Assy
  6
CONTINUOUS
  66
1
  70
0
  40
0.003
  41
0.003
  0
VERTEX
  8
Top_Assy
  10
0.7345
  20
0.4833
  42
1
  0
VERTEX
  8
Top_Assy
  10
0.7375
  20
0.4833
  42
1
  0
VERTEX
  8
Top_Assy
  10
0.7345
  20
0.4833
  42
1
  0
SEQEND
  0
POLYLINE
  8
Top_Assy
  6
CONTINUOUS
  66
1
  70
0
  40
0.003
  41
0.003
  0
VERTEX
  8
Top_Assy
  10
0.7152
  20
0.4833
  42
1
  0
VERTEX
  8
Top_Assy
  10
0.7182
  20
0.4833
  42
1
  0
VERTEX
  8
Top_Assy
  10
0.7152
  20
0.4833
  42
1
  0
SEQEND
  0
POLYLINE
  8
Top_Assy
  6
CONTINUOUS
  66
1
  70
0
  40
0.006
  41
0.006
  0
VERTEX
  8
Top_Assy
  10
0.7167
  20
0.5009
  42
0
  0
VERTEX
  8
Top_Assy
  10
0.736
  20
0.5009
  42
0
  0
SEQEND
  0
POLYLINE
  8
Top_Assy
  6
CONTINUOUS
  66
1
  70
0
  40
0.003
  41
0.003
  0
VERTEX
  8
Top_Assy
  10
0.7152
  20
0.5009
  42
1
  0
VERTEX
  8
Top_Assy
  10
0.7182
  20
0.5009
  42
1
  0
VERTEX
  8
Top_Assy
  10
0.7152
  20
0.5009
  42
1
  0
SEQEND
  0
POLYLINE
  8
Top_Assy
  6
CONTINUOUS
  66
1
  70
0
  40
0.003
  41
0.003
  0
VERTEX
  8
Top_Assy
  10
0.7345
  20
0.5009
  42
1
  0
VERTEX
  8
Top_Assy
  10
0.7375
  20
0.5009
  42
1
  0
VERTEX
  8
Top_Assy
  10
0.7345
  20
0.5009
  42
1
  0
SEQEND
  0
SOLID
  8
Top_Assy
  10
0.3292
  20
0.556
  11
0.2892
  21
0.556
  12
0.3292
  22
0.57
  13
0.2892
  23
0.57
  0
SOLID
  8
Top_Assy
  10
0.3292
  20
0.506
  11
0.2892
  21
0.506
  12
0.3292
  22
0.52
  13
0.2892
  23
0.52
  0
SOLID
  8
Top_Assy
  10
0.3292
  20
0.456
  11
0.2892
  21
0.456
  12
0.3292
  22
0.47
  13
0.2892
  23
0.47
  0
SOLID
  8
Top_Assy
  10
0.3292
  20
0.406
  11
0.2892
  21
0.406
  12
0.3292
  22
0.42
  13
0.2892
  23
0.42
  0
SOLID
  8
Top_Assy
  10
0.5152
  20
0.556
  11
0.4752
  21
0.556
  12
0.5152
  22
0.57
  13
0.4752
  23
0.57
  0
SOLID
  8
Top_Assy
  10
0.5152
  20
0.506
  11
0.4752
  21
0.506
  12
0.5152
  22
0.52
  13
0.4752
  23
0.52
  0
SOLID
  8
Top_Assy
  10
0.5152
  20
0.456
  11
0.4752
  21
0.456
  12
0.5152
  22
0.47
  13
0.4752
  23
0.47
  0
SOLID
  8
Top_Assy
  10
0.5152
  20
0.406
  11
0.4752
  21
0.406
  12
0.5152
  22
0.42
  13
0.4752
  23
0.42
  0
POLYLINE
  8
Top_Assy
  6
CONTINUOUS
  66
1
  70
0
  40
0.006
  41
0.006
  0
VERTEX
  8
Top_Assy
  10
0.3312
  20
0.581
  42
0
  0
VERTEX
  8
Top_Assy
  10
0.3312
  20
0.395
  42
0
  0
SEQEND
  0
POLYLINE
  8
Top_Assy
  6
CONTINUOUS
  66
1
  70
0
  40
0.003
  41
0.003
  0
VERTEX
  8
Top_Assy
  10
0.3297
  20
0.581
  42
1
  0
VERTEX
  8
Top_Assy
  10
0.3327
  20
0.581
  42
1
  0
VERTEX
  8
Top_Assy
  10
0.3297
  20
0.581
  42
1
  0
SEQEND
  0
POLYLINE
  8
Top_Assy
  6
CONTINUOUS
  66
1
  70
0
  40
0.003
  41
0.003
  0
VERTEX
  8
Top_Assy
  10
0.3297
  20
0.395
  42
1
  0
VERTEX
  8
Top_Assy
  10
0.3327
  20
0.395
  42
1
  0
VERTEX
  8
Top_Assy
  10
0.3297
  20
0.395
  42
1
  0
SEQEND
  0
POLYLINE
  8
Top_Assy
  6
CONTINUOUS
  66
1
  70
0
  40
0.006
  41
0.006
  0
VERTEX
  8
Top_Assy
  10
0.4732
  20
0.395
  42
0
  0
VERTEX
  8
Top_Assy
  10
0.4732
  20
0.581
  42
0
  0
SEQEND
  0
POLYLINE
  8
Top_Assy
  6
CONTINUOUS
  66
1
  70
0
  40
0.003
  41
0.003
  0
VERTEX
  8
Top_Assy
  10
0.4717
  20
0.395
  42
1
  0
VERTEX
  8
Top_Assy
  10
0.4747
  20
0.395
  42
1
  0
VERTEX
  8
Top_Assy
  10
0.4717
  20
0.395
  42
1
  0
SEQEND
  0
POLYLINE
  8
Top_Assy
  6
CONTINUOUS
  66
1
  70
0
  40
0.003
  41
0.003
  0
VERTEX
  8
Top_Assy
  10
0.4717
  20
0.581
  42
1
  0
VERTEX
  8
Top_Assy
  10
0.4747
  20
0.581
  42
1
  0
VERTEX
  8
Top_Assy
  10
0.4717
  20
0.581
  42
1
  0
SEQEND
  0
SOLID
  8
Top_Assy
  10
0.9547
  20
0.5413
  11
0.9744
  21
0.5413
  12
0.9547
  22
0.5669
  13
0.9744
  23
0.5669
  0
SOLID
  8
Top_Assy
  10
0.9173
  20
0.5413
  11
0.937
  21
0.5413
  12
0.9173
  22
0.5669
  13
0.937
  23
0.5669
  0
SOLID
  8
Top_Assy
  10
0.8799
  20
0.5413
  11
0.8996
  21
0.5413
  12
0.8799
  22
0.5669
  13
0.8996
  23
0.5669
  0
SOLID
  8
Top_Assy
  10
0.8799
  20
0.4488
  11
0.8996
  21
0.4488
  12
0.8799
  22
0.4744
  13
0.8996
  23
0.4744
  0
SOLID
  8
Top_Assy
  10
0.9547
  20
0.4488
  11
0.9744
  21
0.4488
  12
0.9547
  22
0.4744
  13
0.9744
  23
0.4744
  0
POLYLINE
  8
Top_Assy
  6
CONTINUOUS
  66
1
  70
0
  40
0.006
  41
0.006
  0
VERTEX
  8
Top_Assy
  10
0.8721
  20
0.5394
  42
0
  0
VERTEX
  8
Top_Assy
  10
0.9823
  20
0.5394
  42
0
  0
SEQEND
  0
POLYLINE
  8
Top_Assy
  6
CONTINUOUS
  66
1
  70
0
  40
0.003
  41
0.003
  0
VERTEX
  8
Top_Assy
  10
0.8706
  20
0.5394
  42
1
  0
VERTEX
  8
Top_Assy
  10
0.8736
  20
0.5394
  42
1
  0
VERTEX
  8
Top_Assy
  10
0.8706
  20
0.5394
  42
1
  0
SEQEND
  0
POLYLINE
  8
Top_Assy
  6
CONTINUOUS
  66
1
  70
0
  40
0.003
  41
0.003
  0
VERTEX
  8
Top_Assy
  10
0.9808
  20
0.5394
  42
1
  0
VERTEX
  8
Top_Assy
  10
0.9838
  20
0.5394
  42
1
  0
VERTEX
  8
Top_Assy
  10
0.9808
  20
0.5394
  42
1
  0
SEQEND
  0
POLYLINE
  8
Top_Assy
  6
CONTINUOUS
  66
1
  70
0
  40
0.006
  41
0.006
  0
VERTEX
  8
Top_Assy
  10
0.9823
  20
0.4764
  42
0
  0
VERTEX
  8
Top_Assy
  10
0.8721
  20
0.4764
  42
0
  0
SEQEND
  0
POLYLINE
  8
Top_Assy
  6
CONTINUOUS
  66
1
  70
0
  40
0.003
  41
0.003
  0
VERTEX
  8
Top_Assy
  10
0.9808
  20
0.4764
  42
1
  0
VERTEX
  8
Top_Assy
  10
0.9838
  20
0.4764
  42
1
  0
VERTEX
  8
Top_Assy
  10
0.9808
  20
0.4764
  42
1
  0
SEQEND
  0
POLYLINE
  8
Top_Assy
  6
CONTINUOUS
  66
1
  70
0
  40
0.003
  41
0.003
  0
VERTEX
  8
Top_Assy
  10
0.8706
  20
0.4764
  42
1
  0
VERTEX
  8
Top_Assy
  10
0.8736
  20
0.4764
  42
1
  0
VERTEX
  8
Top_Assy
  10
0.8706
  20
0.4764
  42
1
  0
SEQEND
  0
POLYLINE
  8
Top_Assy
  6
CONTINUOUS
  66
1
  70
0
  40
0.006
  41
0.006
  0
VERTEX
  8
Top_Assy
  10
0.8721
  20
0.4764
  42
0
  0
VERTEX
  8
Top_Assy
  10
0.8721
  20
0.5394
  42
0
  0
SEQEND
  0
POLYLINE
  8
Top_Assy
  6
CONTINUOUS
  66
1
  70
0
  40
0.003
  41
0.003
  0
VERTEX
  8
Top_Assy
  10
0.8706
  20
0.4764
  42
1
  0
VERTEX
  8
Top_Assy
  10
0.8736
  20
0.4764
  42
1
  0
VERTEX
  8
Top_Assy
  10
0.8706
  20
0.4764
  42
1
  0
SEQEND
  0
POLYLINE
  8
Top_Assy
  6
CONTINUOUS
  66
1
  70
0
  40
0.003
  41
0.003
  0
VERTEX
  8
Top_Assy
  10
0.8706
  20
0.5394
  42
1
  0
VERTEX
  8
Top_Assy
  10
0.8736
  20
0.5394
  42
1
  0
VERTEX
  8
Top_Assy
  10
0.8706
  20
0.5394
  42
1
  0
SEQEND
  0
POLYLINE
  8
Top_Assy
  6
CONTINUOUS
  66
1
  70
0
  40
0.006
  41
0.006
  0
VERTEX
  8
Top_Assy
  10
0.9823
  20
0.4764
  42
0
  0
VERTEX
  8
Top_Assy
  10
0.9823
  20
0.5394
  42
0
  0
SEQEND
  0
POLYLINE
  8
Top_Assy
  6
CONTINUOUS
  66
1
  70
0
  40
0.003
  41
0.003
  0
VERTEX
  8
Top_Assy
  10
0.9808
  20
0.4764
  42
1
  0
VERTEX
  8
Top_Assy
  10
0.9838
  20
0.4764
  42
1
  0
VERTEX
  8
Top_Assy
  10
0.9808
  20
0.4764
  42
1
  0
SEQEND
  0
POLYLINE
  8
Top_Assy
  6
CONTINUOUS
  66
1
  70
0
  40
0.003
  41
0.003
  0
VERTEX
  8
Top_Assy
  10
0.9808
  20
0.5394
  42
1
  0
VERTEX
  8
Top_Assy
  10
0.9838
  20
0.5394
  42
1
  0
VERTEX
  8
Top_Assy
  10
0.9808
  20
0.5394
  42
1
  0
SEQEND
  0
POLYLINE
  8
Top_Assy
  6
CONTINUOUS
  66
1
  70
0
  40
0.0013
  41
0.0013
  0
VERTEX
  8
Top_Assy
  10
0.0
  20
0.9843
  42
0
  0
VERTEX
  8
Top_Assy
  10
1.311
  20
0.9843
  42
0
  0
VERTEX
  8
Top_Assy
  10
1.311
  20
0.0
  42
0
  0
VERTEX
  8
Top_Assy
  10
0.0
  20
0.0
  42
0
  0
VERTEX
  8
Top_Assy
  10
0.0
  20
0.9843
  42
0
  0
SEQEND
  0
SOLID
  8
Top_Assy
  10
1.2459
  20
0.5998
  11
1.2659
  21
0.5998
  12
1.2459
  22
0.5798
  13
1.2659
  23
0.5798
  0
SOLID
  8
Top_Assy
  10
1.2459
  20
0.4998
  11
1.2659
  21
0.4998
  12
1.2459
  22
0.4798
  13
1.2659
  23
0.4798
  0
SOLID
  8
Top_Assy
  10
1.2459
  20
0.3998
  11
1.2659
  21
0.3998
  12
1.2459
  22
0.3798
  13
1.2659
  23
0.3798
  0
POLYLINE
  8
Top_Silk
  6
CONTINUOUS
  66
1
  70
0
  40
0.016
  41
0.016
  0
VERTEX
  8
Top_Silk
  10
1.1036
  20
0.5177
  42
0
  0
VERTEX
  8
Top_Silk
  10
1.1012
  20
0.5177
  42
0
  0
SEQEND
  0
POLYLINE
  8
Top_Silk
  6
CONTINUOUS
  66
1
  70
0
  40
0.008
  41
0.008
  0
VERTEX
  8
Top_Silk
  10
1.0996
  20
0.5177
  42
1
  0
VERTEX
  8
Top_Silk
  10
1.1076
  20
0.5177
  42
1
  0
VERTEX
  8
Top_Silk
  10
1.0996
  20
0.5177
  42
1
  0
SEQEND
  0
POLYLINE
  8
Top_Silk
  6
CONTINUOUS
  66
1
  70
0
  40
0.008
  41
0.008
  0
VERTEX
  8
Top_Silk
  10
1.0972
  20
0.5177
  42
1
  0
VERTEX
  8
Top_Silk
  10
1.1052
  20
0.5177
  42
1
  0
VERTEX
  8
Top_Silk
  10
1.0972
  20
0.5177
  42
1
  0
SEQEND
  0
POLYLINE
  8
Top_Silk
  6
CONTINUOUS
  66
1
  70
0
  40
0.016
  41
0.016
  0
VERTEX
  8
Top_Silk
  10
0.935
  20
0.765
  42
0
  0
VERTEX
  8
Top_Silk
  10
0.935
  20
0.7626
  42
0
  0
SEQEND
  0
POLYLINE
  8
Top_Silk
  6
CONTINUOUS
  66
1
  70
0
  40
0.008
  41
0.008
  0
VERTEX
  8
Top_Silk
  10
0.931
  20
0.765
  42
1
  0
VERTEX
  8
Top_Silk
  10
0.939
  20
0.765
  42
1
  0
VERTEX
  8
Top_Silk
  10
0.931
  20
0.765
  42
1
  0
SEQEND
  0
POLYLINE
  8
Top_Silk
  6
CONTINUOUS
  66
1
  70
0
  40
0.008
  41
0.008
  0
VERTEX
  8
Top_Silk
  10
0.931
  20
0.7626
  42
1
  0
VERTEX
  8
Top_Silk
  10
0.939
  20
0.7626
  42
1
  0
VERTEX
  8
Top_Silk
  10
0.931
  20
0.7626
  42
1
  0
SEQEND
  0
POLYLINE
  8
Top_Silk
  6
CONTINUOUS
  66
1
  70
0
  40
0.016
  41
0.016
  0
VERTEX
  8
Top_Silk
  10
0.9547
  20
0.2256
  42
0
  0
VERTEX
  8
Top_Silk
  10
0.9547
  20
0.2232
  42
0
  0
SEQEND
  0
POLYLINE
  8
Top_Silk
  6
CONTINUOUS
  66
1
  70
0
  40
0.008
  41
0.008
  0
VERTEX
  8
Top_Silk
  10
0.9507
  20
0.2256
  42
1
  0
VERTEX
  8
Top_Silk
  10
0.9587
  20
0.2256
  42
1
  0
VERTEX
  8
Top_Silk
  10
0.9507
  20
0.2256
  42
1
  0
SEQEND
  0
POLYLINE
  8
Top_Silk
  6
CONTINUOUS
  66
1
  70
0
  40
0.008
  41
0.008
  0
VERTEX
  8
Top_Silk
  10
0.9507
  20
0.2232
  42
1
  0
VERTEX
  8
Top_Silk
  10
0.9587
  20
0.2232
  42
1
  0
VERTEX
  8
Top_Silk
  10
0.9507
  20
0.2232
  42
1
  0
SEQEND
  0
POLYLINE
  8
Top_Silk
  6
CONTINUOUS
  66
1
  70
0
  40
0.016
  41
0.016
  0
VERTEX
  8
Top_Silk
  10
0.4823
  20
0.6626
  42
0
  0
VERTEX
  8
Top_Silk
  10
0.4823
  20
0.6602
  42
0
  0
SEQEND
  0
POLYLINE
  8
Top_Silk
  6
CONTINUOUS
  66
1
  70
0
  40
0.008
  41
0.008
  0
VERTEX
  8
Top_Silk
  10
0.4783
  20
0.6626
  42
1
  0
VERTEX
  8
Top_Silk
  10
0.4863
  20
0.6626
  42
1
  0
VERTEX
  8
Top_Silk
  10
0.4783
  20
0.6626
  42
1
  0
SEQEND
  0
POLYLINE
  8
Top_Silk
  6
CONTINUOUS
  66
1
  70
0
  40
0.008
  41
0.008
  0
VERTEX
  8
Top_Silk
  10
0.4783
  20
0.6602
  42
1
  0
VERTEX
  8
Top_Silk
  10
0.4863
  20
0.6602
  42
1
  0
VERTEX
  8
Top_Silk
  10
0.4783
  20
0.6602
  42
1
  0
SEQEND
  0
POLYLINE
  8
Top_Silk
  6
CONTINUOUS
  66
1
  70
0
  40
0.016
  41
0.016
  0
VERTEX
  8
Top_Silk
  10
0.4862
  20
0.3122
  42
0
  0
VERTEX
  8
Top_Silk
  10
0.4862
  20
0.3098
  42
0
  0
SEQEND
  0
POLYLINE
  8
Top_Silk
  6
CONTINUOUS
  66
1
  70
0
  40
0.008
  41
0.008
  0
VERTEX
  8
Top_Silk
  10
0.4822
  20
0.3122
  42
1
  0
VERTEX
  8
Top_Silk
  10
0.4902
  20
0.3122
  42
1
  0
VERTEX
  8
Top_Silk
  10
0.4822
  20
0.3122
  42
1
  0
SEQEND
  0
POLYLINE
  8
Top_Silk
  6
CONTINUOUS
  66
1
  70
0
  40
0.008
  41
0.008
  0
VERTEX
  8
Top_Silk
  10
0.4822
  20
0.3098
  42
1
  0
VERTEX
  8
Top_Silk
  10
0.4902
  20
0.3098
  42
1
  0
VERTEX
  8
Top_Silk
  10
0.4822
  20
0.3098
  42
1
  0
SEQEND
  0
POLYLINE
  8
Top_Silk
  6
CONTINUOUS
  66
1
  70
0
  40
0.008
  41
0.008
  0
VERTEX
  8
Top_Silk
  10
0.0931
  20
0.5894
  42
0
  0
VERTEX
  8
Top_Silk
  10
0.0681
  20
0.5644
  42
0
  0
SEQEND
  0
POLYLINE
  8
Top_Silk
  6
CONTINUOUS
  66
1
  70
0
  40
0.004
  41
0.004
  0
VERTEX
  8
Top_Silk
  10
0.0911
  20
0.5894
  42
1
  0
VERTEX
  8
Top_Silk
  10
0.0951
  20
0.5894
  42
1
  0
VERTEX
  8
Top_Silk
  10
0.0911
  20
0.5894
  42
1
  0
SEQEND
  0
POLYLINE
  8
Top_Silk
  6
CONTINUOUS
  66
1
  70
0
  40
0.004
  41
0.004
  0
VERTEX
  8
Top_Silk
  10
0.0661
  20
0.5644
  42
1
  0
VERTEX
  8
Top_Silk
  10
0.0701
  20
0.5644
  42
1
  0
VERTEX
  8
Top_Silk
  10
0.0661
  20
0.5644
  42
1
  0
SEQEND
  0
POLYLINE
  8
Top_Silk
  6
CONTINUOUS
  66
1
  70
0
  40
0.008
  41
0.008
  0
VERTEX
  8
Top_Silk
  10
0.0681
  20
0.5644
  42
0
  0
VERTEX
  8
Top_Silk
  10
0.0681
  20
0.5144
  42
0
  0
SEQEND
  0
POLYLINE
  8
Top_Silk
  6
CONTINUOUS
  66
1
  70
0
  40
0.004
  41
0.004
  0
VERTEX
  8
Top_Silk
  10
0.0661
  20
0.5644
  42
1
  0
VERTEX
  8
Top_Silk
  10
0.0701
  20
0.5644
  42
1
  0
VERTEX
  8
Top_Silk
  10
0.0661
  20
0.5644
  42
1
  0
SEQEND
  0
POLYLINE
  8
Top_Silk
  6
CONTINUOUS
  66
1
  70
0
  40
0.004
  41
0.004
  0
VERTEX
  8
Top_Silk
  10
0.0661
  20
0.5144
  42
1
  0
VERTEX
  8
Top_Silk
  10
0.0701
  20
0.5144
  42
1
  0
VERTEX
  8
Top_Silk
  10
0.0661
  20
0.5144
  42
1
  0
SEQEND
  0
POLYLINE
  8
Top_Silk
  6
CONTINUOUS
  66
1
  70
0
  40
0.008
  41
0.008
  0
VERTEX
  8
Top_Silk
  10
0.0681
  20
0.5144
  42
0
  0
VERTEX
  8
Top_Silk
  10
0.0931
  20
0.4894
  42
0
  0
SEQEND
  0
POLYLINE
  8
Top_Silk
  6
CONTINUOUS
  66
1
  70
0
  40
0.004
  41
0.004
  0
VERTEX
  8
Top_Silk
  10
0.0661
  20
0.5144
  42
1
  0
VERTEX
  8
Top_Silk
  10
0.0701
  20
0.5144
  42
1
  0
VERTEX
  8
Top_Silk
  10
0.0661
  20
0.5144
  42
1
  0
SEQEND
  0
POLYLINE
  8
Top_Silk
  6
CONTINUOUS
  66
1
  70
0
  40
0.004
  41
0.004
  0
VERTEX
  8
Top_Silk
  10
0.0911
  20
0.4894
  42
1
  0
VERTEX
  8
Top_Silk
  10
0.0951
  20
0.4894
  42
1
  0
VERTEX
  8
Top_Silk
  10
0.0911
  20
0.4894
  42
1
  0
SEQEND
  0
POLYLINE
  8
Top_Silk
  6
CONTINUOUS
  66
1
  70
0
  40
0.008
  41
0.008
  0
VERTEX
  8
Top_Silk
  10
0.0931
  20
0.4894
  42
0
  0
VERTEX
  8
Top_Silk
  10
0.1431
  20
0.4894
  42
0
  0
SEQEND
  0
POLYLINE
  8
Top_Silk
  6
CONTINUOUS
  66
1
  70
0
  40
0.004
  41
0.004
  0
VERTEX
  8
Top_Silk
  10
0.0911
  20
0.4894
  42
1
  0
VERTEX
  8
Top_Silk
  10
0.0951
  20
0.4894
  42
1
  0
VERTEX
  8
Top_Silk
  10
0.0911
  20
0.4894
  42
1
  0
SEQEND
  0
POLYLINE
  8
Top_Silk
  6
CONTINUOUS
  66
1
  70
0
  40
0.004
  41
0.004
  0
VERTEX
  8
Top_Silk
  10
0.1411
  20
0.4894
  42
1
  0
VERTEX
  8
Top_Silk
  10
0.1451
  20
0.4894
  42
1
  0
VERTEX
  8
Top_Silk
  10
0.1411
  20
0.4894
  42
1
  0
SEQEND
  0
POLYLINE
  8
Top_Silk
  6
CONTINUOUS
  66
1
  70
0
  40
0.008
  41
0.008
  0
VERTEX
  8
Top_Silk
  10
0.1431
  20
0.4894
  42
0
  0
VERTEX
  8
Top_Silk
  10
0.1681
  20
0.5144
  42
0
  0
SEQEND
  0
POLYLINE
  8
Top_Silk
  6
CONTINUOUS
  66
1
  70
0
  40
0.004
  41
0.004
  0
VERTEX
  8
Top_Silk
  10
0.1411
  20
0.4894
  42
1
  0
VERTEX
  8
Top_Silk
  10
0.1451
  20
0.4894
  42
1
  0
VERTEX
  8
Top_Silk
  10
0.1411
  20
0.4894
  42
1
  0
SEQEND
  0
POLYLINE
  8
Top_Silk
  6
CONTINUOUS
  66
1
  70
0
  40
0.004
  41
0.004
  0
VERTEX
  8
Top_Silk
  10
0.1661
  20
0.5144
  42
1
  0
VERTEX
  8
Top_Silk
  10
0.1701
  20
0.5144
  42
1
  0
VERTEX
  8
Top_Silk
  10
0.1661
  20
0.5144
  42
1
  0
SEQEND
  0
POLYLINE
  8
Top_Silk
  6
CONTINUOUS
  66
1
  70
0
  40
0.008
  41
0.008
  0
VERTEX
  8
Top_Silk
  10
0.1681
  20
0.5144
  42
0
  0
VERTEX
  8
Top_Silk
  10
0.1681
  20
0.5644
  42
0
  0
SEQEND
  0
POLYLINE
  8
Top_Silk
  6
CONTINUOUS
  66
1
  70
0
  40
0.004
  41
0.004
  0
VERTEX
  8
Top_Silk
  10
0.1661
  20
0.5144
  42
1
  0
VERTEX
  8
Top_Silk
  10
0.1701
  20
0.5144
  42
1
  0
VERTEX
  8
Top_Silk
  10
0.1661
  20
0.5144
  42
1
  0
SEQEND
  0
POLYLINE
  8
Top_Silk
  6
CONTINUOUS
  66
1
  70
0
  40
0.004
  41
0.004
  0
VERTEX
  8
Top_Silk
  10
0.1661
  20
0.5644
  42
1
  0
VERTEX
  8
Top_Silk
  10
0.1701
  20
0.5644
  42
1
  0
VERTEX
  8
Top_Silk
  10
0.1661
  20
0.5644
  42
1
  0
SEQEND
  0
POLYLINE
  8
Top_Silk
  6
CONTINUOUS
  66
1
  70
0
  40
0.008
  41
0.008
  0
VERTEX
  8
Top_Silk
  10
0.1681
  20
0.5644
  42
0
  0
VERTEX
  8
Top_Silk
  10
0.1431
  20
0.5894
  42
0
  0
SEQEND
  0
POLYLINE
  8
Top_Silk
  6
CONTINUOUS
  66
1
  70
0
  40
0.004
  41
0.004
  0
VERTEX
  8
Top_Silk
  10
0.1661
  20
0.5644
  42
1
  0
VERTEX
  8
Top_Silk
  10
0.1701
  20
0.5644
  42
1
  0
VERTEX
  8
Top_Silk
  10
0.1661
  20
0.5644
  42
1
  0
SEQEND
  0
POLYLINE
  8
Top_Silk
  6
CONTINUOUS
  66
1
  70
0
  40
0.004
  41
0.004
  0
VERTEX
  8
Top_Silk
  10
0.1411
  20
0.5894
  42
1
  0
VERTEX
  8
Top_Silk
  10
0.1451
  20
0.5894
  42
1
  0
VERTEX
  8
Top_Silk
  10
0.1411
  20
0.5894
  42
1
  0
SEQEND
  0
POLYLINE
  8
Top_Silk
  6
CONTINUOUS
  66
1
  70
0
  40
0.008
  41
0.008
  0
VERTEX
  8
Top_Silk
  10
0.1431
  20
0.5894
  42
0
  0
VERTEX
  8
Top_Silk
  10
0.0931
  20
0.5894
  42
0
  0
SEQEND
  0
POLYLINE
  8
Top_Silk
  6
CONTINUOUS
  66
1
  70
0
  40
0.004
  41
0.004
  0
VERTEX
  8
Top_Silk
  10
0.1411
  20
0.5894
  42
1
  0
VERTEX
  8
Top_Silk
  10
0.1451
  20
0.5894
  42
1
  0
VERTEX
  8
Top_Silk
  10
0.1411
  20
0.5894
  42
1
  0
SEQEND
  0
POLYLINE
  8
Top_Silk
  6
CONTINUOUS
  66
1
  70
0
  40
0.004
  41
0.004
  0
VERTEX
  8
Top_Silk
  10
0.0911
  20
0.5894
  42
1
  0
VERTEX
  8
Top_Silk
  10
0.0951
  20
0.5894
  42
1
  0
VERTEX
  8
Top_Silk
  10
0.0911
  20
0.5894
  42
1
  0
SEQEND
  0
POLYLINE
  8
Top_Silk
  6
CONTINUOUS
  66
1
  70
0
  40
0.008
  41
0.008
  0
VERTEX
  8
Top_Silk
  10
0.0931
  20
0.4831
  42
0
  0
VERTEX
  8
Top_Silk
  10
0.0681
  20
0.4581
  42
0
  0
SEQEND
  0
POLYLINE
  8
Top_Silk
  6
CONTINUOUS
  66
1
  70
0
  40
0.004
  41
0.004
  0
VERTEX
  8
Top_Silk
  10
0.0911
  20
0.4831
  42
1
  0
VERTEX
  8
Top_Silk
  10
0.0951
  20
0.4831
  42
1
  0
VERTEX
  8
Top_Silk
  10
0.0911
  20
0.4831
  42
1
  0
SEQEND
  0
POLYLINE
  8
Top_Silk
  6
CONTINUOUS
  66
1
  70
0
  40
0.004
  41
0.004
  0
VERTEX
  8
Top_Silk
  10
0.0661
  20
0.4581
  42
1
  0
VERTEX
  8
Top_Silk
  10
0.0701
  20
0.4581
  42
1
  0
VERTEX
  8
Top_Silk
  10
0.0661
  20
0.4581
  42
1
  0
SEQEND
  0
POLYLINE
  8
Top_Silk
  6
CONTINUOUS
  66
1
  70
0
  40
0.008
  41
0.008
  0
VERTEX
  8
Top_Silk
  10
0.0681
  20
0.4581
  42
0
  0
VERTEX
  8
Top_Silk
  10
0.0681
  20
0.4081
  42
0
  0
SEQEND
  0
POLYLINE
  8
Top_Silk
  6
CONTINUOUS
  66
1
  70
0
  40
0.004
  41
0.004
  0
VERTEX
  8
Top_Silk
  10
0.0661
  20
0.4581
  42
1
  0
VERTEX
  8
Top_Silk
  10
0.0701
  20
0.4581
  42
1
  0
VERTEX
  8
Top_Silk
  10
0.0661
  20
0.4581
  42
1
  0
SEQEND
  0
POLYLINE
  8
Top_Silk
  6
CONTINUOUS
  66
1
  70
0
  40
0.004
  41
0.004
  0
VERTEX
  8
Top_Silk
  10
0.0661
  20
0.4081
  42
1
  0
VERTEX
  8
Top_Silk
  10
0.0701
  20
0.4081
  42
1
  0
VERTEX
  8
Top_Silk
  10
0.0661
  20
0.4081
  42
1
  0
SEQEND
  0
POLYLINE
  8
Top_Silk
  6
CONTINUOUS
  66
1
  70
0
  40
0.008
  41
0.008
  0
VERTEX
  8
Top_Silk
  10
0.0681
  20
0.4081
  42
0
  0
VERTEX
  8
Top_Silk
  10
0.0931
  20
0.3831
  42
0
  0
SEQEND
  0
POLYLINE
  8
Top_Silk
  6
CONTINUOUS
  66
1
  70
0
  40
0.004
  41
0.004
  0
VERTEX
  8
Top_Silk
  10
0.0661
  20
0.4081
  42
1
  0
VERTEX
  8
Top_Silk
  10
0.0701
  20
0.4081
  42
1
  0
VERTEX
  8
Top_Silk
  10
0.0661
  20
0.4081
  42
1
  0
SEQEND
  0
POLYLINE
  8
Top_Silk
  6
CONTINUOUS
  66
1
  70
0
  40
0.004
  41
0.004
  0
VERTEX
  8
Top_Silk
  10
0.0911
  20
0.3831
  42
1
  0
VERTEX
  8
Top_Silk
  10
0.0951
  20
0.3831
  42
1
  0
VERTEX
  8
Top_Silk
  10
0.0911
  20
0.3831
  42
1
  0
SEQEND
  0
POLYLINE
  8
Top_Silk
  6
CONTINUOUS
  66
1
  70
0
  40
0.008
  41
0.008
  0
VERTEX
  8
Top_Silk
  10
0.0931
  20
0.3831
  42
0
  0
VERTEX
  8
Top_Silk
  10
0.1431
  20
0.3831
  42
0
  0
SEQEND
  0
POLYLINE
  8
Top_Silk
  6
CONTINUOUS
  66
1
  70
0
  40
0.004
  41
0.004
  0
VERTEX
  8
Top_Silk
  10
0.0911
  20
0.3831
  42
1
  0
VERTEX
  8
Top_Silk
  10
0.0951
  20
0.3831
  42
1
  0
VERTEX
  8
Top_Silk
  10
0.0911
  20
0.3831
  42
1
  0
SEQEND
  0
POLYLINE
  8
Top_Silk
  6
CONTINUOUS
  66
1
  70
0
  40
0.004
  41
0.004
  0
VERTEX
  8
Top_Silk
  10
0.1411
  20
0.3831
  42
1
  0
VERTEX
  8
Top_Silk
  10
0.1451
  20
0.3831
  42
1
  0
VERTEX
  8
Top_Silk
  10
0.1411
  20
0.3831
  42
1
  0
SEQEND
  0
POLYLINE
  8
Top_Silk
  6
CONTINUOUS
  66
1
  70
0
  40
0.008
  41
0.008
  0
VERTEX
  8
Top_Silk
  10
0.1431
  20
0.3831
  42
0
  0
VERTEX
  8
Top_Silk
  10
0.1681
  20
0.4081
  42
0
  0
SEQEND
  0
POLYLINE
  8
Top_Silk
  6
CONTINUOUS
  66
1
  70
0
  40
0.004
  41
0.004
  0
VERTEX
  8
Top_Silk
  10
0.1411
  20
0.3831
  42
1
  0
VERTEX
  8
Top_Silk
  10
0.1451
  20
0.3831
  42
1
  0
VERTEX
  8
Top_Silk
  10
0.1411
  20
0.3831
  42
1
  0
SEQEND
  0
POLYLINE
  8
Top_Silk
  6
CONTINUOUS
  66
1
  70
0
  40
0.004
  41
0.004
  0
VERTEX
  8
Top_Silk
  10
0.1661
  20
0.4081
  42
1
  0
VERTEX
  8
Top_Silk
  10
0.1701
  20
0.4081
  42
1
  0
VERTEX
  8
Top_Silk
  10
0.1661
  20
0.4081
  42
1
  0
SEQEND
  0
POLYLINE
  8
Top_Silk
  6
CONTINUOUS
  66
1
  70
0
  40
0.008
  41
0.008
  0
VERTEX
  8
Top_Silk
  10
0.1681
  20
0.4081
  42
0
  0
VERTEX
  8
Top_Silk
  10
0.1681
  20
0.4581
  42
0
  0
SEQEND
  0
POLYLINE
  8
Top_Silk
  6
CONTINUOUS
  66
1
  70
0
  40
0.004
  41
0.004
  0
VERTEX
  8
Top_Silk
  10
0.1661
  20
0.4081
  42
1
  0
VERTEX
  8
Top_Silk
  10
0.1701
  20
0.4081
  42
1
  0
VERTEX
  8
Top_Silk
  10
0.1661
  20
0.4081
  42
1
  0
SEQEND
  0
POLYLINE
  8
Top_Silk
  6
CONTINUOUS
  66
1
  70
0
  40
0.004
  41
0.004
  0
VERTEX
  8
Top_Silk
  10
0.1661
  20
0.4581
  42
1
  0
VERTEX
  8
Top_Silk
  10
0.1701
  20
0.4581
  42
1
  0
VERTEX
  8
Top_Silk
  10
0.1661
  20
0.4581
  42
1
  0
SEQEND
  0
POLYLINE
  8
Top_Silk
  6
CONTINUOUS
  66
1
  70
0
  40
0.008
  41
0.008
  0
VERTEX
  8
Top_Silk
  10
0.1681
  20
0.4581
  42
0
  0
VERTEX
  8
Top_Silk
  10
0.1431
  20
0.4831
  42
0
  0
SEQEND
  0
POLYLINE
  8
Top_Silk
  6
CONTINUOUS
  66
1
  70
0
  40
0.004
  41
0.004
  0
VERTEX
  8
Top_Silk
  10
0.1661
  20
0.4581
  42
1
  0
VERTEX
  8
Top_Silk
  10
0.1701
  20
0.4581
  42
1
  0
VERTEX
  8
Top_Silk
  10
0.1661
  20
0.4581
  42
1
  0
SEQEND
  0
POLYLINE
  8
Top_Silk
  6
CONTINUOUS
  66
1
  70
0
  40
0.004
  41
0.004
  0
VERTEX
  8
Top_Silk
  10
0.1411
  20
0.4831
  42
1
  0
VERTEX
  8
Top_Silk
  10
0.1451
  20
0.4831
  42
1
  0
VERTEX
  8
Top_Silk
  10
0.1411
  20
0.4831
  42
1
  0
SEQEND
  0
POLYLINE
  8
Top_Silk
  6
CONTINUOUS
  66
1
  70
0
  40
0.008
  41
0.008
  0
VERTEX
  8
Top_Silk
  10
0.1431
  20
0.4831
  42
0
  0
VERTEX
  8
Top_Silk
  10
0.0931
  20
0.4831
  42
0
  0
SEQEND
  0
POLYLINE
  8
Top_Silk
  6
CONTINUOUS
  66
1
  70
0
  40
0.004
  41
0.004
  0
VERTEX
  8
Top_Silk
  10
0.1411
  20
0.4831
  42
1
  0
VERTEX
  8
Top_Silk
  10
0.1451
  20
0.4831
  42
1
  0
VERTEX
  8
Top_Silk
  10
0.1411
  20
0.4831
  42
1
  0
SEQEND
  0
POLYLINE
  8
Top_Silk
  6
CONTINUOUS
  66
1
  70
0
  40
0.004
  41
0.004
  0
VERTEX
  8
Top_Silk
  10
0.0911
  20
0.4831
  42
1
  0
VERTEX
  8
Top_Silk
  10
0.0951
  20
0.4831
  42
1
  0
VERTEX
  8
Top_Silk
  10
0.0911
  20
0.4831
  42
1
  0
SEQEND
  0
SOLID
  8
Top_Silk
  10
1.0534
  20
0.5097
  11
1.0254
  21
0.5097
  12
1.0534
  22
0.5257
  13
1.0254
  23
0.5257
  0
SOLID
  8
Top_Silk
  10
0.7184
  20
0.4781
  11
0.7344
  21
0.4781
  12
0.7184
  22
0.5061
  13
0.7344
  23
0.5061
  0
POLYLINE
  8
Top_Silk
  6
CONTINUOUS
  66
1
  70
0
  40
0.008
  41
0.008
  0
VERTEX
  8
Top_Silk
  10
0.7973
  20
0.2657
  42
0
  0
VERTEX
  8
Top_Silk
  10
0.7973
  20
0.2894
  42
0
  0
SEQEND
  0
POLYLINE
  8
Top_Silk
  6
CONTINUOUS
  66
1
  70
0
  40
0.004
  41
0.004
  0
VERTEX
  8
Top_Silk
  10
0.7953
  20
0.2657
  42
1
  0
VERTEX
  8
Top_Silk
  10
0.7993
  20
0.2657
  42
1
  0
VERTEX
  8
Top_Silk
  10
0.7953
  20
0.2657
  42
1
  0
SEQEND
  0
POLYLINE
  8
Top_Silk
  6
CONTINUOUS
  66
1
  70
0
  40
0.004
  41
0.004
  0
VERTEX
  8
Top_Silk
  10
0.7953
  20
0.2894
  42
1
  0
VERTEX
  8
Top_Silk
  10
0.7993
  20
0.2894
  42
1
  0
VERTEX
  8
Top_Silk
  10
0.7953
  20
0.2894
  42
1
  0
SEQEND
  0
POLYLINE
  8
Top_Silk
  6
CONTINUOUS
  66
1
  70
0
  40
0.008
  41
0.008
  0
VERTEX
  8
Top_Silk
  10
0.7973
  20
0.2894
  42
0
  0
VERTEX
  8
Top_Silk
  10
0.6713
  20
0.2894
  42
0
  0
SEQEND
  0
POLYLINE
  8
Top_Silk
  6
CONTINUOUS
  66
1
  70
0
  40
0.004
  41
0.004
  0
VERTEX
  8
Top_Silk
  10
0.7953
  20
0.2894
  42
1
  0
VERTEX
  8
Top_Silk
  10
0.7993
  20
0.2894
  42
1
  0
VERTEX
  8
Top_Silk
  10
0.7953
  20
0.2894
  42
1
  0
SEQEND
  0
POLYLINE
  8
Top_Silk
  6
CONTINUOUS
  66
1
  70
0
  40
0.004
  41
0.004
  0
VERTEX
  8
Top_Silk
  10
0.6693
  20
0.2894
  42
1
  0
VERTEX
  8
Top_Silk
  10
0.6733
  20
0.2894
  42
1
  0
VERTEX
  8
Top_Silk
  10
0.6693
  20
0.2894
  42
1
  0
SEQEND
  0
POLYLINE
  8
Top_Silk
  6
CONTINUOUS
  66
1
  70
0
  40
0.008
  41
0.008
  0
VERTEX
  8
Top_Silk
  10
0.7973
  20
0.187
  42
0
  0
VERTEX
  8
Top_Silk
  10
0.7973
  20
0.1634
  42
0
  0
SEQEND
  0
POLYLINE
  8
Top_Silk
  6
CONTINUOUS
  66
1
  70
0
  40
0.004
  41
0.004
  0
VERTEX
  8
Top_Silk
  10
0.7953
  20
0.187
  42
1
  0
VERTEX
  8
Top_Silk
  10
0.7993
  20
0.187
  42
1
  0
VERTEX
  8
Top_Silk
  10
0.7953
  20
0.187
  42
1
  0
SEQEND
  0
POLYLINE
  8
Top_Silk
  6
CONTINUOUS
  66
1
  70
0
  40
0.004
  41
0.004
  0
VERTEX
  8
Top_Silk
  10
0.7953
  20
0.1634
  42
1
  0
VERTEX
  8
Top_Silk
  10
0.7993
  20
0.1634
  42
1
  0
VERTEX
  8
Top_Silk
  10
0.7953
  20
0.1634
  42
1
  0
SEQEND
  0
POLYLINE
  8
Top_Silk
  6
CONTINUOUS
  66
1
  70
0
  40
0.008
  41
0.008
  0
VERTEX
  8
Top_Silk
  10
0.7973
  20
0.1634
  42
0
  0
VERTEX
  8
Top_Silk
  10
0.6713
  20
0.1634
  42
0
  0
SEQEND
  0
POLYLINE
  8
Top_Silk
  6
CONTINUOUS
  66
1
  70
0
  40
0.004
  41
0.004
  0
VERTEX
  8
Top_Silk
  10
0.7953
  20
0.1634
  42
1
  0
VERTEX
  8
Top_Silk
  10
0.7993
  20
0.1634
  42
1
  0
VERTEX
  8
Top_Silk
  10
0.7953
  20
0.1634
  42
1
  0
SEQEND
  0
POLYLINE
  8
Top_Silk
  6
CONTINUOUS
  66
1
  70
0
  40
0.004
  41
0.004
  0
VERTEX
  8
Top_Silk
  10
0.6693
  20
0.1634
  42
1
  0
VERTEX
  8
Top_Silk
  10
0.6733
  20
0.1634
  42
1
  0
VERTEX
  8
Top_Silk
  10
0.6693
  20
0.1634
  42
1
  0
SEQEND
  0
POLYLINE
  8
Top_Silk
  6
CONTINUOUS
  66
1
  70
0
  40
0.008
  41
0.008
  0
VERTEX
  8
Top_Silk
  10
0.7776
  20
0.8051
  42
0
  0
VERTEX
  8
Top_Silk
  10
0.7776
  20
0.8287
  42
0
  0
SEQEND
  0
POLYLINE
  8
Top_Silk
  6
CONTINUOUS
  66
1
  70
0
  40
0.004
  41
0.004
  0
VERTEX
  8
Top_Silk
  10
0.7756
  20
0.8051
  42
1
  0
VERTEX
  8
Top_Silk
  10
0.7796
  20
0.8051
  42
1
  0
VERTEX
  8
Top_Silk
  10
0.7756
  20
0.8051
  42
1
  0
SEQEND
  0
POLYLINE
  8
Top_Silk
  6
CONTINUOUS
  66
1
  70
0
  40
0.004
  41
0.004
  0
VERTEX
  8
Top_Silk
  10
0.7756
  20
0.8287
  42
1
  0
VERTEX
  8
Top_Silk
  10
0.7796
  20
0.8287
  42
1
  0
VERTEX
  8
Top_Silk
  10
0.7756
  20
0.8287
  42
1
  0
SEQEND
  0
POLYLINE
  8
Top_Silk
  6
CONTINUOUS
  66
1
  70
0
  40
0.008
  41
0.008
  0
VERTEX
  8
Top_Silk
  10
0.7776
  20
0.8287
  42
0
  0
VERTEX
  8
Top_Silk
  10
0.6516
  20
0.8287
  42
0
  0
SEQEND
  0
POLYLINE
  8
Top_Silk
  6
CONTINUOUS
  66
1
  70
0
  40
0.004
  41
0.004
  0
VERTEX
  8
Top_Silk
  10
0.7756
  20
0.8287
  42
1
  0
VERTEX
  8
Top_Silk
  10
0.7796
  20
0.8287
  42
1
  0
VERTEX
  8
Top_Silk
  10
0.7756
  20
0.8287
  42
1
  0
SEQEND
  0
POLYLINE
  8
Top_Silk
  6
CONTINUOUS
  66
1
  70
0
  40
0.004
  41
0.004
  0
VERTEX
  8
Top_Silk
  10
0.6496
  20
0.8287
  42
1
  0
VERTEX
  8
Top_Silk
  10
0.6536
  20
0.8287
  42
1
  0
VERTEX
  8
Top_Silk
  10
0.6496
  20
0.8287
  42
1
  0
SEQEND
  0
POLYLINE
  8
Top_Silk
  6
CONTINUOUS
  66
1
  70
0
  40
0.008
  41
0.008
  0
VERTEX
  8
Top_Silk
  10
0.7776
  20
0.7264
  42
0
  0
VERTEX
  8
Top_Silk
  10
0.7776
  20
0.7028
  42
0
  0
SEQEND
  0
POLYLINE
  8
Top_Silk
  6
CONTINUOUS
  66
1
  70
0
  40
0.004
  41
0.004
  0
VERTEX
  8
Top_Silk
  10
0.7756
  20
0.7264
  42
1
  0
VERTEX
  8
Top_Silk
  10
0.7796
  20
0.7264
  42
1
  0
VERTEX
  8
Top_Silk
  10
0.7756
  20
0.7264
  42
1
  0
SEQEND
  0
POLYLINE
  8
Top_Silk
  6
CONTINUOUS
  66
1
  70
0
  40
0.004
  41
0.004
  0
VERTEX
  8
Top_Silk
  10
0.7756
  20
0.7028
  42
1
  0
VERTEX
  8
Top_Silk
  10
0.7796
  20
0.7028
  42
1
  0
VERTEX
  8
Top_Silk
  10
0.7756
  20
0.7028
  42
1
  0
SEQEND
  0
POLYLINE
  8
Top_Silk
  6
CONTINUOUS
  66
1
  70
0
  40
0.008
  41
0.008
  0
VERTEX
  8
Top_Silk
  10
0.7776
  20
0.7028
  42
0
  0
VERTEX
  8
Top_Silk
  10
0.6516
  20
0.7028
  42
0
  0
SEQEND
  0
POLYLINE
  8
Top_Silk
  6
CONTINUOUS
  66
1
  70
0
  40
0.004
  41
0.004
  0
VERTEX
  8
Top_Silk
  10
0.7756
  20
0.7028
  42
1
  0
VERTEX
  8
Top_Silk
  10
0.7796
  20
0.7028
  42
1
  0
VERTEX
  8
Top_Silk
  10
0.7756
  20
0.7028
  42
1
  0
SEQEND
  0
POLYLINE
  8
Top_Silk
  6
CONTINUOUS
  66
1
  70
0
  40
0.004
  41
0.004
  0
VERTEX
  8
Top_Silk
  10
0.6496
  20
0.7028
  42
1
  0
VERTEX
  8
Top_Silk
  10
0.6536
  20
0.7028
  42
1
  0
VERTEX
  8
Top_Silk
  10
0.6496
  20
0.7028
  42
1
  0
SEQEND
  0
CIRCLE
  8
Top_Silk
  10
0.3632
  20
0.559
  40
0.0057
  0
POLYLINE
  8
Top_Silk
  6
CONTINUOUS
  66
1
  70
0
  40
0.006
  41
0.006
  0
VERTEX
  8
Top_Silk
  10
0.3312
  20
0.395
  42
0
  0
VERTEX
  8
Top_Silk
  10
0.4732
  20
0.395
  42
0
  0
SEQEND
  0
POLYLINE
  8
Top_Silk
  6
CONTINUOUS
  66
1
  70
0
  40
0.003
  41
0.003
  0
VERTEX
  8
Top_Silk
  10
0.3297
  20
0.395
  42
1
  0
VERTEX
  8
Top_Silk
  10
0.3327
  20
0.395
  42
1
  0
VERTEX
  8
Top_Silk
  10
0.3297
  20
0.395
  42
1
  0
SEQEND
  0
POLYLINE
  8
Top_Silk
  6
CONTINUOUS
  66
1
  70
0
  40
0.003
  41
0.003
  0
VERTEX
  8
Top_Silk
  10
0.4717
  20
0.395
  42
1
  0
VERTEX
  8
Top_Silk
  10
0.4747
  20
0.395
  42
1
  0
VERTEX
  8
Top_Silk
  10
0.4717
  20
0.395
  42
1
  0
SEQEND
  0
POLYLINE
  8
Top_Silk
  6
CONTINUOUS
  66
1
  70
0
  40
0.006
  41
0.006
  0
VERTEX
  8
Top_Silk
  10
0.4732
  20
0.581
  42
0
  0
VERTEX
  8
Top_Silk
  10
0.3312
  20
0.581
  42
0
  0
SEQEND
  0
POLYLINE
  8
Top_Silk
  6
CONTINUOUS
  66
1
  70
0
  40
0.003
  41
0.003
  0
VERTEX
  8
Top_Silk
  10
0.4717
  20
0.581
  42
1
  0
VERTEX
  8
Top_Silk
  10
0.4747
  20
0.581
  42
1
  0
VERTEX
  8
Top_Silk
  10
0.4717
  20
0.581
  42
1
  0
SEQEND
  0
POLYLINE
  8
Top_Silk
  6
CONTINUOUS
  66
1
  70
0
  40
0.003
  41
0.003
  0
VERTEX
  8
Top_Silk
  10
0.3297
  20
0.581
  42
1
  0
VERTEX
  8
Top_Silk
  10
0.3327
  20
0.581
  42
1
  0
VERTEX
  8
Top_Silk
  10
0.3297
  20
0.581
  42
1
  0
SEQEND
  0
POLYLINE
  8
Top_Silk
  6
CONTINUOUS
  66
1
  70
0
  40
0.008
  41
0.008
  0
VERTEX
  8
Top_Silk
  10
0.8712
  20
0.491
  42
0
  0
VERTEX
  8
Top_Silk
  10
0.8712
  20
0.5248
  42
0
  0
SEQEND
  0
POLYLINE
  8
Top_Silk
  6
CONTINUOUS
  66
1
  70
0
  40
0.004
  41
0.004
  0
VERTEX
  8
Top_Silk
  10
0.8692
  20
0.491
  42
1
  0
VERTEX
  8
Top_Silk
  10
0.8732
  20
0.491
  42
1
  0
VERTEX
  8
Top_Silk
  10
0.8692
  20
0.491
  42
1
  0
SEQEND
  0
POLYLINE
  8
Top_Silk
  6
CONTINUOUS
  66
1
  70
0
  40
0.004
  41
0.004
  0
VERTEX
  8
Top_Silk
  10
0.8692
  20
0.5248
  42
1
  0
VERTEX
  8
Top_Silk
  10
0.8732
  20
0.5248
  42
1
  0
VERTEX
  8
Top_Silk
  10
0.8692
  20
0.5248
  42
1
  0
SEQEND
  0
POLYLINE
  8
Top_Silk
  6
CONTINUOUS
  66
1
  70
0
  40
0.008
  41
0.008
  0
VERTEX
  8
Top_Silk
  10
0.9832
  20
0.5248
  42
0
  0
VERTEX
  8
Top_Silk
  10
0.9832
  20
0.491
  42
0
  0
SEQEND
  0
POLYLINE
  8
Top_Silk
  6
CONTINUOUS
  66
1
  70
0
  40
0.004
  41
0.004
  0
VERTEX
  8
Top_Silk
  10
0.9812
  20
0.5248
  42
1
  0
VERTEX
  8
Top_Silk
  10
0.9852
  20
0.5248
  42
1
  0
VERTEX
  8
Top_Silk
  10
0.9812
  20
0.5248
  42
1
  0
SEQEND
  0
POLYLINE
  8
Top_Silk
  6
CONTINUOUS
  66
1
  70
0
  40
0.004
  41
0.004
  0
VERTEX
  8
Top_Silk
  10
0.9812
  20
0.491
  42
1
  0
VERTEX
  8
Top_Silk
  10
0.9852
  20
0.491
  42
1
  0
VERTEX
  8
Top_Silk
  10
0.9812
  20
0.491
  42
1
  0
SEQEND
  0
POLYLINE
  8
Top_Silk
  6
CONTINUOUS
  66
1
  70
0
  40
0.008
  41
0.008
  0
VERTEX
  8
Top_Silk
  10
0.9377
  20
0.476
  42
0
  0
VERTEX
  8
Top_Silk
  10
0.9166
  20
0.476
  42
0
  0
SEQEND
  0
POLYLINE
  8
Top_Silk
  6
CONTINUOUS
  66
1
  70
0
  40
0.004
  41
0.004
  0
VERTEX
  8
Top_Silk
  10
0.9357
  20
0.476
  42
1
  0
VERTEX
  8
Top_Silk
  10
0.9397
  20
0.476
  42
1
  0
VERTEX
  8
Top_Silk
  10
0.9357
  20
0.476
  42
1
  0
SEQEND
  0
POLYLINE
  8
Top_Silk
  6
CONTINUOUS
  66
1
  70
0
  40
0.004
  41
0.004
  0
VERTEX
  8
Top_Silk
  10
0.9146
  20
0.476
  42
1
  0
VERTEX
  8
Top_Silk
  10
0.9186
  20
0.476
  42
1
  0
VERTEX
  8
Top_Silk
  10
0.9146
  20
0.476
  42
1
  0
SEQEND
  0
POLYLINE
  8
Top_Silk
  6
CONTINUOUS
  66
1
  70
0
  40
0.0062
  41
0.0062
  0
VERTEX
  8
Top_Silk
  10
0.1999
  20
0.7267
  42
0
  0
VERTEX
  8
Top_Silk
  10
0.1999
  20
0.6865
  42
0
  0
SEQEND
  0
POLYLINE
  8
Top_Silk
  6
CONTINUOUS
  66
1
  70
0
  40
0.0031
  41
0.0031
  0
VERTEX
  8
Top_Silk
  10
0.1983
  20
0.7267
  42
1
  0
VERTEX
  8
Top_Silk
  10
0.2014
  20
0.7267
  42
1
  0
VERTEX
  8
Top_Silk
  10
0.1983
  20
0.7267
  42
1
  0
SEQEND
  0
POLYLINE
  8
Top_Silk
  6
CONTINUOUS
  66
1
  70
0
  40
0.0031
  41
0.0031
  0
VERTEX
  8
Top_Silk
  10
0.1983
  20
0.6865
  42
1
  0
VERTEX
  8
Top_Silk
  10
0.2014
  20
0.6865
  42
1
  0
VERTEX
  8
Top_Silk
  10
0.1983
  20
0.6865
  42
1
  0
SEQEND
  0
POLYLINE
  8
Top_Silk
  6
CONTINUOUS
  66
1
  70
0
  40
0.0062
  41
0.0062
  0
VERTEX
  8
Top_Silk
  10
0.2122
  20
0.7056
  42
0
  0
VERTEX
  8
Top_Silk
  10
0.2295
  20
0.7056
  42
0
  0
VERTEX
  8
Top_Silk
  10
0.2352
  20
0.7075
  42
0
  0
VERTEX
  8
Top_Silk
  10
0.2371
  20
0.7095
  42
0
  0
VERTEX
  8
Top_Silk
  10
0.239
  20
0.7133
  42
0
  0
VERTEX
  8
Top_Silk
  10
0.239
  20
0.719
  42
0
  0
VERTEX
  8
Top_Silk
  10
0.2371
  20
0.7228
  42
0
  0
VERTEX
  8
Top_Silk
  10
0.2352
  20
0.7248
  42
0
  0
VERTEX
  8
Top_Silk
  10
0.2295
  20
0.7267
  42
0
  0
VERTEX
  8
Top_Silk
  10
0.2122
  20
0.7267
  42
0
  0
VERTEX
  8
Top_Silk
  10
0.2122
  20
0.6865
  42
0
  0
SEQEND
  0
POLYLINE
  8
Top_Silk
  6
CONTINUOUS
  66
1
  70
0
  40
0.0031
  41
0.0031
  0
VERTEX
  8
Top_Silk
  10
0.2107
  20
0.7056
  42
1
  0
VERTEX
  8
Top_Silk
  10
0.2138
  20
0.7056
  42
1
  0
VERTEX
  8
Top_Silk
  10
0.2107
  20
0.7056
  42
1
  0
SEQEND
  0
POLYLINE
  8
Top_Silk
  6
CONTINUOUS
  66
1
  70
0
  40
0.0031
  41
0.0031
  0
VERTEX
  8
Top_Silk
  10
0.2107
  20
0.6865
  42
1
  0
VERTEX
  8
Top_Silk
  10
0.2138
  20
0.6865
  42
1
  0
VERTEX
  8
Top_Silk
  10
0.2107
  20
0.6865
  42
1
  0
SEQEND
  0
POLYLINE
  8
Top_Silk
  6
CONTINUOUS
  66
1
  70
0
  40
0.0062
  41
0.0062
  0
VERTEX
  8
Top_Silk
  10
0.2686
  20
0.7238
  42
0
  0
VERTEX
  8
Top_Silk
  10
0.2686
  20
0.6893
  42
0
  0
SEQEND
  0
POLYLINE
  8
Top_Silk
  6
CONTINUOUS
  66
1
  70
0
  40
0.0031
  41
0.0031
  0
VERTEX
  8
Top_Silk
  10
0.267
  20
0.7238
  42
1
  0
VERTEX
  8
Top_Silk
  10
0.2701
  20
0.7238
  42
1
  0
VERTEX
  8
Top_Silk
  10
0.267
  20
0.7238
  42
1
  0
SEQEND
  0
POLYLINE
  8
Top_Silk
  6
CONTINUOUS
  66
1
  70
0
  40
0.0031
  41
0.0031
  0
VERTEX
  8
Top_Silk
  10
0.267
  20
0.6893
  42
1
  0
VERTEX
  8
Top_Silk
  10
0.2701
  20
0.6893
  42
1
  0
VERTEX
  8
Top_Silk
  10
0.267
  20
0.6893
  42
1
  0
SEQEND
  0
POLYLINE
  8
Top_Silk
  6
CONTINUOUS
  66
1
  70
0
  40
0.0062
  41
0.0062
  0
VERTEX
  8
Top_Silk
  10
0.2514
  20
0.7065
  42
0
  0
VERTEX
  8
Top_Silk
  10
0.2858
  20
0.7065
  42
0
  0
SEQEND
  0
POLYLINE
  8
Top_Silk
  6
CONTINUOUS
  66
1
  70
0
  40
0.0031
  41
0.0031
  0
VERTEX
  8
Top_Silk
  10
0.2498
  20
0.7065
  42
1
  0
VERTEX
  8
Top_Silk
  10
0.2529
  20
0.7065
  42
1
  0
VERTEX
  8
Top_Silk
  10
0.2498
  20
0.7065
  42
1
  0
SEQEND
  0
POLYLINE
  8
Top_Silk
  6
CONTINUOUS
  66
1
  70
0
  40
0.0031
  41
0.0031
  0
VERTEX
  8
Top_Silk
  10
0.2843
  20
0.7065
  42
1
  0
VERTEX
  8
Top_Silk
  10
0.2874
  20
0.7065
  42
1
  0
VERTEX
  8
Top_Silk
  10
0.2843
  20
0.7065
  42
1
  0
SEQEND
  0
POLYLINE
  8
Top_Silk
  6
CONTINUOUS
  66
1
  70
0
  40
0.0062
  41
0.0062
  0
VERTEX
  8
Top_Silk
  10
0.1802
  20
0.5613
  42
0
  0
VERTEX
  8
Top_Silk
  10
0.1802
  20
0.5211
  42
0
  0
SEQEND
  0
POLYLINE
  8
Top_Silk
  6
CONTINUOUS
  66
1
  70
0
  40
0.0031
  41
0.0031
  0
VERTEX
  8
Top_Silk
  10
0.1786
  20
0.5613
  42
1
  0
VERTEX
  8
Top_Silk
  10
0.1817
  20
0.5613
  42
1
  0
VERTEX
  8
Top_Silk
  10
0.1786
  20
0.5613
  42
1
  0
SEQEND
  0
POLYLINE
  8
Top_Silk
  6
CONTINUOUS
  66
1
  70
0
  40
0.0031
  41
0.0031
  0
VERTEX
  8
Top_Silk
  10
0.1786
  20
0.5211
  42
1
  0
VERTEX
  8
Top_Silk
  10
0.1817
  20
0.5211
  42
1
  0
VERTEX
  8
Top_Silk
  10
0.1786
  20
0.5211
  42
1
  0
SEQEND
  0
POLYLINE
  8
Top_Silk
  6
CONTINUOUS
  66
1
  70
0
  40
0.0062
  41
0.0062
  0
VERTEX
  8
Top_Silk
  10
0.1925
  20
0.5403
  42
0
  0
VERTEX
  8
Top_Silk
  10
0.2098
  20
0.5403
  42
0
  0
VERTEX
  8
Top_Silk
  10
0.2155
  20
0.5422
  42
0
  0
VERTEX
  8
Top_Silk
  10
0.2174
  20
0.5441
  42
0
  0
VERTEX
  8
Top_Silk
  10
0.2193
  20
0.5479
  42
0
  0
VERTEX
  8
Top_Silk
  10
0.2193
  20
0.5537
  42
0
  0
VERTEX
  8
Top_Silk
  10
0.2174
  20
0.5575
  42
0
  0
VERTEX
  8
Top_Silk
  10
0.2155
  20
0.5594
  42
0
  0
VERTEX
  8
Top_Silk
  10
0.2098
  20
0.5613
  42
0
  0
VERTEX
  8
Top_Silk
  10
0.1925
  20
0.5613
  42
0
  0
VERTEX
  8
Top_Silk
  10
0.1925
  20
0.5211
  42
0
  0
SEQEND
  0
POLYLINE
  8
Top_Silk
  6
CONTINUOUS
  66
1
  70
0
  40
0.0031
  41
0.0031
  0
VERTEX
  8
Top_Silk
  10
0.191
  20
0.5403
  42
1
  0
VERTEX
  8
Top_Silk
  10
0.1941
  20
0.5403
  42
1
  0
VERTEX
  8
Top_Silk
  10
0.191
  20
0.5403
  42
1
  0
SEQEND
  0
POLYLINE
  8
Top_Silk
  6
CONTINUOUS
  66
1
  70
0
  40
0.0031
  41
0.0031
  0
VERTEX
  8
Top_Silk
  10
0.191
  20
0.5211
  42
1
  0
VERTEX
  8
Top_Silk
  10
0.1941
  20
0.5211
  42
1
  0
VERTEX
  8
Top_Silk
  10
0.191
  20
0.5211
  42
1
  0
SEQEND
  0
POLYLINE
  8
Top_Silk
  6
CONTINUOUS
  66
1
  70
0
  40
0.0062
  41
0.0062
  0
VERTEX
  8
Top_Silk
  10
0.2489
  20
0.5584
  42
0
  0
VERTEX
  8
Top_Silk
  10
0.2489
  20
0.524
  42
0
  0
SEQEND
  0
POLYLINE
  8
Top_Silk
  6
CONTINUOUS
  66
1
  70
0
  40
0.0031
  41
0.0031
  0
VERTEX
  8
Top_Silk
  10
0.2473
  20
0.5584
  42
1
  0
VERTEX
  8
Top_Silk
  10
0.2504
  20
0.5584
  42
1
  0
VERTEX
  8
Top_Silk
  10
0.2473
  20
0.5584
  42
1
  0
SEQEND
  0
POLYLINE
  8
Top_Silk
  6
CONTINUOUS
  66
1
  70
0
  40
0.0031
  41
0.0031
  0
VERTEX
  8
Top_Silk
  10
0.2473
  20
0.524
  42
1
  0
VERTEX
  8
Top_Silk
  10
0.2504
  20
0.524
  42
1
  0
VERTEX
  8
Top_Silk
  10
0.2473
  20
0.524
  42
1
  0
SEQEND
  0
POLYLINE
  8
Top_Silk
  6
CONTINUOUS
  66
1
  70
0
  40
0.0062
  41
0.0062
  0
VERTEX
  8
Top_Silk
  10
0.2317
  20
0.5412
  42
0
  0
VERTEX
  8
Top_Silk
  10
0.2661
  20
0.5412
  42
0
  0
SEQEND
  0
POLYLINE
  8
Top_Silk
  6
CONTINUOUS
  66
1
  70
0
  40
0.0031
  41
0.0031
  0
VERTEX
  8
Top_Silk
  10
0.2301
  20
0.5412
  42
1
  0
VERTEX
  8
Top_Silk
  10
0.2332
  20
0.5412
  42
1
  0
VERTEX
  8
Top_Silk
  10
0.2301
  20
0.5412
  42
1
  0
SEQEND
  0
POLYLINE
  8
Top_Silk
  6
CONTINUOUS
  66
1
  70
0
  40
0.0031
  41
0.0031
  0
VERTEX
  8
Top_Silk
  10
0.2646
  20
0.5412
  42
1
  0
VERTEX
  8
Top_Silk
  10
0.2677
  20
0.5412
  42
1
  0
VERTEX
  8
Top_Silk
  10
0.2646
  20
0.5412
  42
1
  0
SEQEND
  0
POLYLINE
  8
Top_Silk
  6
CONTINUOUS
  66
1
  70
0
  40
0.0062
  41
0.0062
  0
VERTEX
  8
Top_Silk
  10
0.1824
  20
0.4528
  42
0
  0
VERTEX
  8
Top_Silk
  10
0.1824
  20
0.4126
  42
0
  0
SEQEND
  0
POLYLINE
  8
Top_Silk
  6
CONTINUOUS
  66
1
  70
0
  40
0.0031
  41
0.0031
  0
VERTEX
  8
Top_Silk
  10
0.1809
  20
0.4528
  42
1
  0
VERTEX
  8
Top_Silk
  10
0.184
  20
0.4528
  42
1
  0
VERTEX
  8
Top_Silk
  10
0.1809
  20
0.4528
  42
1
  0
SEQEND
  0
POLYLINE
  8
Top_Silk
  6
CONTINUOUS
  66
1
  70
0
  40
0.0031
  41
0.0031
  0
VERTEX
  8
Top_Silk
  10
0.1809
  20
0.4126
  42
1
  0
VERTEX
  8
Top_Silk
  10
0.184
  20
0.4126
  42
1
  0
VERTEX
  8
Top_Silk
  10
0.1809
  20
0.4126
  42
1
  0
SEQEND
  0
POLYLINE
  8
Top_Silk
  6
CONTINUOUS
  66
1
  70
0
  40
0.0062
  41
0.0062
  0
VERTEX
  8
Top_Silk
  10
0.1948
  20
0.4317
  42
0
  0
VERTEX
  8
Top_Silk
  10
0.212
  20
0.4317
  42
0
  0
VERTEX
  8
Top_Silk
  10
0.2177
  20
0.4336
  42
0
  0
VERTEX
  8
Top_Silk
  10
0.2197
  20
0.4356
  42
0
  0
VERTEX
  8
Top_Silk
  10
0.2216
  20
0.4394
  42
0
  0
VERTEX
  8
Top_Silk
  10
0.2216
  20
0.4451
  42
0
  0
VERTEX
  8
Top_Silk
  10
0.2197
  20
0.4489
  42
0
  0
VERTEX
  8
Top_Silk
  10
0.2177
  20
0.4509
  42
0
  0
VERTEX
  8
Top_Silk
  10
0.212
  20
0.4528
  42
0
  0
VERTEX
  8
Top_Silk
  10
0.1948
  20
0.4528
  42
0
  0
VERTEX
  8
Top_Silk
  10
0.1948
  20
0.4126
  42
0
  0
SEQEND
  0
POLYLINE
  8
Top_Silk
  6
CONTINUOUS
  66
1
  70
0
  40
0.0031
  41
0.0031
  0
VERTEX
  8
Top_Silk
  10
0.1932
  20
0.4317
  42
1
  0
VERTEX
  8
Top_Silk
  10
0.1963
  20
0.4317
  42
1
  0
VERTEX
  8
Top_Silk
  10
0.1932
  20
0.4317
  42
1
  0
SEQEND
  0
POLYLINE
  8
Top_Silk
  6
CONTINUOUS
  66
1
  70
0
  40
0.0031
  41
0.0031
  0
VERTEX
  8
Top_Silk
  10
0.1932
  20
0.4126
  42
1
  0
VERTEX
  8
Top_Silk
  10
0.1963
  20
0.4126
  42
1
  0
VERTEX
  8
Top_Silk
  10
0.1932
  20
0.4126
  42
1
  0
SEQEND
  0
POLYLINE
  8
Top_Silk
  6
CONTINUOUS
  66
1
  70
0
  40
0.0062
  41
0.0062
  0
VERTEX
  8
Top_Silk
  10
0.2339
  20
0.4327
  42
0
  0
VERTEX
  8
Top_Silk
  10
0.256
  20
0.4327
  42
0
  0
SEQEND
  0
POLYLINE
  8
Top_Silk
  6
CONTINUOUS
  66
1
  70
0
  40
0.0031
  41
0.0031
  0
VERTEX
  8
Top_Silk
  10
0.2324
  20
0.4327
  42
1
  0
VERTEX
  8
Top_Silk
  10
0.2355
  20
0.4327
  42
1
  0
VERTEX
  8
Top_Silk
  10
0.2324
  20
0.4327
  42
1
  0
SEQEND
  0
POLYLINE
  8
Top_Silk
  6
CONTINUOUS
  66
1
  70
0
  40
0.0031
  41
0.0031
  0
VERTEX
  8
Top_Silk
  10
0.2545
  20
0.4327
  42
1
  0
VERTEX
  8
Top_Silk
  10
0.2576
  20
0.4327
  42
1
  0
VERTEX
  8
Top_Silk
  10
0.2545
  20
0.4327
  42
1
  0
SEQEND
  0
POLYLINE
  8
Top_Silk
  6
CONTINUOUS
  66
1
  70
0
  40
0.0062
  41
0.0062
  0
VERTEX
  8
Top_Silk
  10
0.2021
  20
0.2874
  42
0
  0
VERTEX
  8
Top_Silk
  10
0.2021
  20
0.2472
  42
0
  0
SEQEND
  0
POLYLINE
  8
Top_Silk
  6
CONTINUOUS
  66
1
  70
0
  40
0.0031
  41
0.0031
  0
VERTEX
  8
Top_Silk
  10
0.2006
  20
0.2874
  42
1
  0
VERTEX
  8
Top_Silk
  10
0.2036
  20
0.2874
  42
1
  0
VERTEX
  8
Top_Silk
  10
0.2006
  20
0.2874
  42
1
  0
SEQEND
  0
POLYLINE
  8
Top_Silk
  6
CONTINUOUS
  66
1
  70
0
  40
0.0031
  41
0.0031
  0
VERTEX
  8
Top_Silk
  10
0.2006
  20
0.2472
  42
1
  0
VERTEX
  8
Top_Silk
  10
0.2036
  20
0.2472
  42
1
  0
VERTEX
  8
Top_Silk
  10
0.2006
  20
0.2472
  42
1
  0
SEQEND
  0
POLYLINE
  8
Top_Silk
  6
CONTINUOUS
  66
1
  70
0
  40
0.0062
  41
0.0062
  0
VERTEX
  8
Top_Silk
  10
0.2144
  20
0.2664
  42
0
  0
VERTEX
  8
Top_Silk
  10
0.2317
  20
0.2664
  42
0
  0
VERTEX
  8
Top_Silk
  10
0.2374
  20
0.2683
  42
0
  0
VERTEX
  8
Top_Silk
  10
0.2393
  20
0.2702
  42
0
  0
VERTEX
  8
Top_Silk
  10
0.2412
  20
0.274
  42
0
  0
VERTEX
  8
Top_Silk
  10
0.2412
  20
0.2798
  42
0
  0
VERTEX
  8
Top_Silk
  10
0.2393
  20
0.2836
  42
0
  0
VERTEX
  8
Top_Silk
  10
0.2374
  20
0.2855
  42
0
  0
VERTEX
  8
Top_Silk
  10
0.2317
  20
0.2874
  42
0
  0
VERTEX
  8
Top_Silk
  10
0.2144
  20
0.2874
  42
0
  0
VERTEX
  8
Top_Silk
  10
0.2144
  20
0.2472
  42
0
  0
SEQEND
  0
POLYLINE
  8
Top_Silk
  6
CONTINUOUS
  66
1
  70
0
  40
0.0031
  41
0.0031
  0
VERTEX
  8
Top_Silk
  10
0.2129
  20
0.2664
  42
1
  0
VERTEX
  8
Top_Silk
  10
0.216
  20
0.2664
  42
1
  0
VERTEX
  8
Top_Silk
  10
0.2129
  20
0.2664
  42
1
  0
SEQEND
  0
POLYLINE
  8
Top_Silk
  6
CONTINUOUS
  66
1
  70
0
  40
0.0031
  41
0.0031
  0
VERTEX
  8
Top_Silk
  10
0.2129
  20
0.2472
  42
1
  0
VERTEX
  8
Top_Silk
  10
0.216
  20
0.2472
  42
1
  0
VERTEX
  8
Top_Silk
  10
0.2129
  20
0.2472
  42
1
  0
SEQEND
  0
POLYLINE
  8
Top_Silk
  6
CONTINUOUS
  66
1
  70
0
  40
0.0062
  41
0.0062
  0
VERTEX
  8
Top_Silk
  10
0.2536
  20
0.2673
  42
0
  0
VERTEX
  8
Top_Silk
  10
0.2757
  20
0.2673
  42
0
  0
SEQEND
  0
POLYLINE
  8
Top_Silk
  6
CONTINUOUS
  66
1
  70
0
  40
0.0031
  41
0.0031
  0
VERTEX
  8
Top_Silk
  10
0.2521
  20
0.2673
  42
1
  0
VERTEX
  8
Top_Silk
  10
0.2551
  20
0.2673
  42
1
  0
VERTEX
  8
Top_Silk
  10
0.2521
  20
0.2673
  42
1
  0
SEQEND
  0
POLYLINE
  8
Top_Silk
  6
CONTINUOUS
  66
1
  70
0
  40
0.0031
  41
0.0031
  0
VERTEX
  8
Top_Silk
  10
0.2742
  20
0.2673
  42
1
  0
VERTEX
  8
Top_Silk
  10
0.2772
  20
0.2673
  42
1
  0
VERTEX
  8
Top_Silk
  10
0.2742
  20
0.2673
  42
1
  0
SEQEND
  0
POLYLINE
  8
Top_Silk
  6
CONTINUOUS
  66
1
  70
0
  40
0.0093
  41
0.0093
  0
VERTEX
  8
Top_Silk
  10
0.2492
  20
0.1856
  42
0
  0
VERTEX
  8
Top_Silk
  10
0.2492
  20
0.1397
  42
0
  0
VERTEX
  8
Top_Silk
  10
0.2463
  20
0.1311
  42
0
  0
VERTEX
  8
Top_Silk
  10
0.2434
  20
0.1283
  42
0
  0
VERTEX
  8
Top_Silk
  10
0.2377
  20
0.1253
  42
0
  0
VERTEX
  8
Top_Silk
  10
0.2319
  20
0.1253
  42
0
  0
VERTEX
  8
Top_Silk
  10
0.2262
  20
0.1283
  42
0
  0
VERTEX
  8
Top_Silk
  10
0.2234
  20
0.1311
  42
0
  0
VERTEX
  8
Top_Silk
  10
0.2205
  20
0.1397
  42
0
  0
VERTEX
  8
Top_Silk
  10
0.2205
  20
0.1454
  42
0
  0
SEQEND
  0
POLYLINE
  8
Top_Silk
  6
CONTINUOUS
  66
1
  70
0
  40
0.0046
  41
0.0046
  0
VERTEX
  8
Top_Silk
  10
0.2469
  20
0.1856
  42
1
  0
VERTEX
  8
Top_Silk
  10
0.2515
  20
0.1856
  42
1
  0
VERTEX
  8
Top_Silk
  10
0.2469
  20
0.1856
  42
1
  0
SEQEND
  0
POLYLINE
  8
Top_Silk
  6
CONTINUOUS
  66
1
  70
0
  40
0.0046
  41
0.0046
  0
VERTEX
  8
Top_Silk
  10
0.2182
  20
0.1454
  42
1
  0
VERTEX
  8
Top_Silk
  10
0.2228
  20
0.1454
  42
1
  0
VERTEX
  8
Top_Silk
  10
0.2182
  20
0.1454
  42
1
  0
SEQEND
  0
POLYLINE
  8
Top_Silk
  6
CONTINUOUS
  66
1
  70
0
  40
0.0093
  41
0.0093
  0
VERTEX
  8
Top_Silk
  10
0.2677
  20
0.1856
  42
0
  0
VERTEX
  8
Top_Silk
  10
0.2677
  20
0.1253
  42
0
  0
SEQEND
  0
POLYLINE
  8
Top_Silk
  6
CONTINUOUS
  66
1
  70
0
  40
0.0046
  41
0.0046
  0
VERTEX
  8
Top_Silk
  10
0.2654
  20
0.1856
  42
1
  0
VERTEX
  8
Top_Silk
  10
0.27
  20
0.1856
  42
1
  0
VERTEX
  8
Top_Silk
  10
0.2654
  20
0.1856
  42
1
  0
SEQEND
  0
POLYLINE
  8
Top_Silk
  6
CONTINUOUS
  66
1
  70
0
  40
0.0046
  41
0.0046
  0
VERTEX
  8
Top_Silk
  10
0.2654
  20
0.1253
  42
1
  0
VERTEX
  8
Top_Silk
  10
0.27
  20
0.1253
  42
1
  0
VERTEX
  8
Top_Silk
  10
0.2654
  20
0.1253
  42
1
  0
SEQEND
  0
POLYLINE
  8
Top_Silk
  6
CONTINUOUS
  66
1
  70
0
  40
0.0093
  41
0.0093
  0
VERTEX
  8
Top_Silk
  10
0.3079
  20
0.1856
  42
0
  0
VERTEX
  8
Top_Silk
  10
0.2677
  20
0.1454
  42
0
  0
SEQEND
  0
POLYLINE
  8
Top_Silk
  6
CONTINUOUS
  66
1
  70
0
  40
0.0046
  41
0.0046
  0
VERTEX
  8
Top_Silk
  10
0.3056
  20
0.1856
  42
1
  0
VERTEX
  8
Top_Silk
  10
0.3102
  20
0.1856
  42
1
  0
VERTEX
  8
Top_Silk
  10
0.3056
  20
0.1856
  42
1
  0
SEQEND
  0
POLYLINE
  8
Top_Silk
  6
CONTINUOUS
  66
1
  70
0
  40
0.0046
  41
0.0046
  0
VERTEX
  8
Top_Silk
  10
0.2654
  20
0.1454
  42
1
  0
VERTEX
  8
Top_Silk
  10
0.27
  20
0.1454
  42
1
  0
VERTEX
  8
Top_Silk
  10
0.2654
  20
0.1454
  42
1
  0
SEQEND
  0
POLYLINE
  8
Top_Silk
  6
CONTINUOUS
  66
1
  70
0
  40
0.0093
  41
0.0093
  0
VERTEX
  8
Top_Silk
  10
0.282
  20
0.1598
  42
0
  0
VERTEX
  8
Top_Silk
  10
0.3079
  20
0.1253
  42
0
  0
SEQEND
  0
POLYLINE
  8
Top_Silk
  6
CONTINUOUS
  66
1
  70
0
  40
0.0046
  41
0.0046
  0
VERTEX
  8
Top_Silk
  10
0.2797
  20
0.1598
  42
1
  0
VERTEX
  8
Top_Silk
  10
0.2844
  20
0.1598
  42
1
  0
VERTEX
  8
Top_Silk
  10
0.2797
  20
0.1598
  42
1
  0
SEQEND
  0
POLYLINE
  8
Top_Silk
  6
CONTINUOUS
  66
1
  70
0
  40
0.0046
  41
0.0046
  0
VERTEX
  8
Top_Silk
  10
0.3056
  20
0.1253
  42
1
  0
VERTEX
  8
Top_Silk
  10
0.3102
  20
0.1253
  42
1
  0
VERTEX
  8
Top_Silk
  10
0.3056
  20
0.1253
  42
1
  0
SEQEND
  0
POLYLINE
  8
Top_Silk
  6
CONTINUOUS
  66
1
  70
0
  40
0.0062
  41
0.0062
  0
VERTEX
  8
Top_Silk
  10
0.3513
  20
0.1636
  42
0
  0
VERTEX
  8
Top_Silk
  10
0.3264
  20
0.1636
  42
0
  0
VERTEX
  8
Top_Silk
  10
0.3264
  20
0.1234
  42
0
  0
VERTEX
  8
Top_Silk
  10
0.3513
  20
0.1234
  42
0
  0
SEQEND
  0
POLYLINE
  8
Top_Silk
  6
CONTINUOUS
  66
1
  70
0
  40
0.0031
  41
0.0031
  0
VERTEX
  8
Top_Silk
  10
0.3498
  20
0.1636
  42
1
  0
VERTEX
  8
Top_Silk
  10
0.3528
  20
0.1636
  42
1
  0
VERTEX
  8
Top_Silk
  10
0.3498
  20
0.1636
  42
1
  0
SEQEND
  0
POLYLINE
  8
Top_Silk
  6
CONTINUOUS
  66
1
  70
0
  40
0.0031
  41
0.0031
  0
VERTEX
  8
Top_Silk
  10
0.3498
  20
0.1234
  42
1
  0
VERTEX
  8
Top_Silk
  10
0.3528
  20
0.1234
  42
1
  0
VERTEX
  8
Top_Silk
  10
0.3498
  20
0.1234
  42
1
  0
SEQEND
  0
POLYLINE
  8
Top_Silk
  6
CONTINUOUS
  66
1
  70
0
  40
0.0062
  41
0.0062
  0
VERTEX
  8
Top_Silk
  10
0.3264
  20
0.1445
  42
0
  0
VERTEX
  8
Top_Silk
  10
0.3417
  20
0.1445
  42
0
  0
SEQEND
  0
POLYLINE
  8
Top_Silk
  6
CONTINUOUS
  66
1
  70
0
  40
0.0031
  41
0.0031
  0
VERTEX
  8
Top_Silk
  10
0.3249
  20
0.1445
  42
1
  0
VERTEX
  8
Top_Silk
  10
0.328
  20
0.1445
  42
1
  0
VERTEX
  8
Top_Silk
  10
0.3249
  20
0.1445
  42
1
  0
SEQEND
  0
POLYLINE
  8
Top_Silk
  6
CONTINUOUS
  66
1
  70
0
  40
0.0031
  41
0.0031
  0
VERTEX
  8
Top_Silk
  10
0.3402
  20
0.1445
  42
1
  0
VERTEX
  8
Top_Silk
  10
0.3433
  20
0.1445
  42
1
  0
VERTEX
  8
Top_Silk
  10
0.3402
  20
0.1445
  42
1
  0
SEQEND
  0
POLYLINE
  8
Top_Silk
  6
CONTINUOUS
  66
1
  70
0
  40
0.0062
  41
0.0062
  0
VERTEX
  8
Top_Silk
  10
0.3636
  20
0.1636
  42
0
  0
VERTEX
  8
Top_Silk
  10
0.3636
  20
0.1234
  42
0
  0
SEQEND
  0
POLYLINE
  8
Top_Silk
  6
CONTINUOUS
  66
1
  70
0
  40
0.0031
  41
0.0031
  0
VERTEX
  8
Top_Silk
  10
0.3621
  20
0.1636
  42
1
  0
VERTEX
  8
Top_Silk
  10
0.3652
  20
0.1636
  42
1
  0
VERTEX
  8
Top_Silk
  10
0.3621
  20
0.1636
  42
1
  0
SEQEND
  0
POLYLINE
  8
Top_Silk
  6
CONTINUOUS
  66
1
  70
0
  40
0.0031
  41
0.0031
  0
VERTEX
  8
Top_Silk
  10
0.3621
  20
0.1234
  42
1
  0
VERTEX
  8
Top_Silk
  10
0.3652
  20
0.1234
  42
1
  0
VERTEX
  8
Top_Silk
  10
0.3621
  20
0.1234
  42
1
  0
SEQEND
  0
POLYLINE
  8
Top_Silk
  6
CONTINUOUS
  66
1
  70
0
  40
0.0062
  41
0.0062
  0
VERTEX
  8
Top_Silk
  10
0.376
  20
0.1387
  42
0
  0
VERTEX
  8
Top_Silk
  10
0.3989
  20
0.1387
  42
0
  0
VERTEX
  8
Top_Silk
  10
0.3989
  20
0.1426
  42
0
  0
VERTEX
  8
Top_Silk
  10
0.397
  20
0.1464
  42
0
  0
VERTEX
  8
Top_Silk
  10
0.3951
  20
0.1483
  42
0
  0
VERTEX
  8
Top_Silk
  10
0.3913
  20
0.1502
  42
0
  0
VERTEX
  8
Top_Silk
  10
0.3855
  20
0.1502
  42
0
  0
VERTEX
  8
Top_Silk
  10
0.3817
  20
0.1483
  42
0
  0
VERTEX
  8
Top_Silk
  10
0.3779
  20
0.1445
  42
0
  0
VERTEX
  8
Top_Silk
  10
0.376
  20
0.1387
  42
0
  0
VERTEX
  8
Top_Silk
  10
0.376
  20
0.1349
  42
0
  0
VERTEX
  8
Top_Silk
  10
0.3779
  20
0.1292
  42
0
  0
VERTEX
  8
Top_Silk
  10
0.3817
  20
0.1254
  42
0
  0
VERTEX
  8
Top_Silk
  10
0.3855
  20
0.1234
  42
0
  0
VERTEX
  8
Top_Silk
  10
0.3913
  20
0.1234
  42
0
  0
VERTEX
  8
Top_Silk
  10
0.3951
  20
0.1254
  42
0
  0
VERTEX
  8
Top_Silk
  10
0.3989
  20
0.1292
  42
0
  0
SEQEND
  0
POLYLINE
  8
Top_Silk
  6
CONTINUOUS
  66
1
  70
0
  40
0.0031
  41
0.0031
  0
VERTEX
  8
Top_Silk
  10
0.3745
  20
0.1387
  42
1
  0
VERTEX
  8
Top_Silk
  10
0.3775
  20
0.1387
  42
1
  0
VERTEX
  8
Top_Silk
  10
0.3745
  20
0.1387
  42
1
  0
SEQEND
  0
POLYLINE
  8
Top_Silk
  6
CONTINUOUS
  66
1
  70
0
  40
0.0031
  41
0.0031
  0
VERTEX
  8
Top_Silk
  10
0.3974
  20
0.1292
  42
1
  0
VERTEX
  8
Top_Silk
  10
0.4005
  20
0.1292
  42
1
  0
VERTEX
  8
Top_Silk
  10
0.3974
  20
0.1292
  42
1
  0
SEQEND
  0
POLYLINE
  8
Top_Silk
  6
CONTINUOUS
  66
1
  70
0
  40
0.0062
  41
0.0062
  0
VERTEX
  8
Top_Silk
  10
0.4343
  20
0.1445
  42
0
  0
VERTEX
  8
Top_Silk
  10
0.4304
  20
0.1483
  42
0
  0
VERTEX
  8
Top_Silk
  10
0.4266
  20
0.1502
  42
0
  0
VERTEX
  8
Top_Silk
  10
0.4209
  20
0.1502
  42
0
  0
VERTEX
  8
Top_Silk
  10
0.417
  20
0.1483
  42
0
  0
VERTEX
  8
Top_Silk
  10
0.4132
  20
0.1445
  42
0
  0
VERTEX
  8
Top_Silk
  10
0.4113
  20
0.1387
  42
0
  0
VERTEX
  8
Top_Silk
  10
0.4113
  20
0.1349
  42
0
  0
VERTEX
  8
Top_Silk
  10
0.4132
  20
0.1292
  42
0
  0
VERTEX
  8
Top_Silk
  10
0.417
  20
0.1254
  42
0
  0
VERTEX
  8
Top_Silk
  10
0.4209
  20
0.1234
  42
0
  0
VERTEX
  8
Top_Silk
  10
0.4266
  20
0.1234
  42
0
  0
VERTEX
  8
Top_Silk
  10
0.4304
  20
0.1254
  42
0
  0
VERTEX
  8
Top_Silk
  10
0.4343
  20
0.1292
  42
0
  0
SEQEND
  0
POLYLINE
  8
Top_Silk
  6
CONTINUOUS
  66
1
  70
0
  40
0.0031
  41
0.0031
  0
VERTEX
  8
Top_Silk
  10
0.4327
  20
0.1445
  42
1
  0
VERTEX
  8
Top_Silk
  10
0.4358
  20
0.1445
  42
1
  0
VERTEX
  8
Top_Silk
  10
0.4327
  20
0.1445
  42
1
  0
SEQEND
  0
POLYLINE
  8
Top_Silk
  6
CONTINUOUS
  66
1
  70
0
  40
0.0031
  41
0.0031
  0
VERTEX
  8
Top_Silk
  10
0.4327
  20
0.1292
  42
1
  0
VERTEX
  8
Top_Silk
  10
0.4358
  20
0.1292
  42
1
  0
VERTEX
  8
Top_Silk
  10
0.4327
  20
0.1292
  42
1
  0
SEQEND
  0
POLYLINE
  8
Top_Silk
  6
CONTINUOUS
  66
1
  70
0
  40
0.0062
  41
0.0062
  0
VERTEX
  8
Top_Silk
  10
0.4524
  20
0.1636
  42
0
  0
VERTEX
  8
Top_Silk
  10
0.4524
  20
0.1311
  42
0
  0
VERTEX
  8
Top_Silk
  10
0.4543
  20
0.1254
  42
0
  0
VERTEX
  8
Top_Silk
  10
0.4581
  20
0.1234
  42
0
  0
VERTEX
  8
Top_Silk
  10
0.4619
  20
0.1234
  42
0
  0
SEQEND
  0
POLYLINE
  8
Top_Silk
  6
CONTINUOUS
  66
1
  70
0
  40
0.0031
  41
0.0031
  0
VERTEX
  8
Top_Silk
  10
0.4508
  20
0.1636
  42
1
  0
VERTEX
  8
Top_Silk
  10
0.4539
  20
0.1636
  42
1
  0
VERTEX
  8
Top_Silk
  10
0.4508
  20
0.1636
  42
1
  0
SEQEND
  0
POLYLINE
  8
Top_Silk
  6
CONTINUOUS
  66
1
  70
0
  40
0.0031
  41
0.0031
  0
VERTEX
  8
Top_Silk
  10
0.4604
  20
0.1234
  42
1
  0
VERTEX
  8
Top_Silk
  10
0.4635
  20
0.1234
  42
1
  0
VERTEX
  8
Top_Silk
  10
0.4604
  20
0.1234
  42
1
  0
SEQEND
  0
POLYLINE
  8
Top_Silk
  6
CONTINUOUS
  66
1
  70
0
  40
0.0062
  41
0.0062
  0
VERTEX
  8
Top_Silk
  10
0.4466
  20
0.1502
  42
0
  0
VERTEX
  8
Top_Silk
  10
0.46
  20
0.1502
  42
0
  0
SEQEND
  0
POLYLINE
  8
Top_Silk
  6
CONTINUOUS
  66
1
  70
0
  40
0.0031
  41
0.0031
  0
VERTEX
  8
Top_Silk
  10
0.4451
  20
0.1502
  42
1
  0
VERTEX
  8
Top_Silk
  10
0.4482
  20
0.1502
  42
1
  0
VERTEX
  8
Top_Silk
  10
0.4451
  20
0.1502
  42
1
  0
SEQEND
  0
POLYLINE
  8
Top_Silk
  6
CONTINUOUS
  66
1
  70
0
  40
0.0031
  41
0.0031
  0
VERTEX
  8
Top_Silk
  10
0.4585
  20
0.1502
  42
1
  0
VERTEX
  8
Top_Silk
  10
0.4616
  20
0.1502
  42
1
  0
VERTEX
  8
Top_Silk
  10
0.4585
  20
0.1502
  42
1
  0
SEQEND
  0
POLYLINE
  8
Top_Silk
  6
CONTINUOUS
  66
1
  70
0
  40
0.0062
  41
0.0062
  0
VERTEX
  8
Top_Silk
  10
0.4743
  20
0.1502
  42
0
  0
VERTEX
  8
Top_Silk
  10
0.4743
  20
0.1234
  42
0
  0
SEQEND
  0
POLYLINE
  8
Top_Silk
  6
CONTINUOUS
  66
1
  70
0
  40
0.0031
  41
0.0031
  0
VERTEX
  8
Top_Silk
  10
0.4727
  20
0.1502
  42
1
  0
VERTEX
  8
Top_Silk
  10
0.4758
  20
0.1502
  42
1
  0
VERTEX
  8
Top_Silk
  10
0.4727
  20
0.1502
  42
1
  0
SEQEND
  0
POLYLINE
  8
Top_Silk
  6
CONTINUOUS
  66
1
  70
0
  40
0.0031
  41
0.0031
  0
VERTEX
  8
Top_Silk
  10
0.4727
  20
0.1234
  42
1
  0
VERTEX
  8
Top_Silk
  10
0.4758
  20
0.1234
  42
1
  0
VERTEX
  8
Top_Silk
  10
0.4727
  20
0.1234
  42
1
  0
SEQEND
  0
POLYLINE
  8
Top_Silk
  6
CONTINUOUS
  66
1
  70
0
  40
0.0062
  41
0.0062
  0
VERTEX
  8
Top_Silk
  10
0.4743
  20
0.1387
  42
0
  0
VERTEX
  8
Top_Silk
  10
0.4762
  20
0.1445
  42
0
  0
VERTEX
  8
Top_Silk
  10
0.48
  20
0.1483
  42
0
  0
VERTEX
  8
Top_Silk
  10
0.4839
  20
0.1502
  42
0
  0
VERTEX
  8
Top_Silk
  10
0.4896
  20
0.1502
  42
0
  0
SEQEND
  0
POLYLINE
  8
Top_Silk
  6
CONTINUOUS
  66
1
  70
0
  40
0.0031
  41
0.0031
  0
VERTEX
  8
Top_Silk
  10
0.4727
  20
0.1387
  42
1
  0
VERTEX
  8
Top_Silk
  10
0.4758
  20
0.1387
  42
1
  0
VERTEX
  8
Top_Silk
  10
0.4727
  20
0.1387
  42
1
  0
SEQEND
  0
POLYLINE
  8
Top_Silk
  6
CONTINUOUS
  66
1
  70
0
  40
0.0031
  41
0.0031
  0
VERTEX
  8
Top_Silk
  10
0.4881
  20
0.1502
  42
1
  0
VERTEX
  8
Top_Silk
  10
0.4912
  20
0.1502
  42
1
  0
VERTEX
  8
Top_Silk
  10
0.4881
  20
0.1502
  42
1
  0
SEQEND
  0
POLYLINE
  8
Top_Silk
  6
CONTINUOUS
  66
1
  70
0
  40
0.0062
  41
0.0062
  0
VERTEX
  8
Top_Silk
  10
0.5115
  20
0.1502
  42
0
  0
VERTEX
  8
Top_Silk
  10
0.5077
  20
0.1483
  42
0
  0
VERTEX
  8
Top_Silk
  10
0.5039
  20
0.1445
  42
0
  0
VERTEX
  8
Top_Silk
  10
0.502
  20
0.1387
  42
0
  0
VERTEX
  8
Top_Silk
  10
0.502
  20
0.1349
  42
0
  0
VERTEX
  8
Top_Silk
  10
0.5039
  20
0.1292
  42
0
  0
VERTEX
  8
Top_Silk
  10
0.5077
  20
0.1254
  42
0
  0
VERTEX
  8
Top_Silk
  10
0.5115
  20
0.1234
  42
0
  0
VERTEX
  8
Top_Silk
  10
0.5173
  20
0.1234
  42
0
  0
VERTEX
  8
Top_Silk
  10
0.5211
  20
0.1254
  42
0
  0
VERTEX
  8
Top_Silk
  10
0.5249
  20
0.1292
  42
0
  0
VERTEX
  8
Top_Silk
  10
0.5269
  20
0.1349
  42
0
  0
VERTEX
  8
Top_Silk
  10
0.5269
  20
0.1387
  42
0
  0
VERTEX
  8
Top_Silk
  10
0.5249
  20
0.1445
  42
0
  0
VERTEX
  8
Top_Silk
  10
0.5211
  20
0.1483
  42
0
  0
VERTEX
  8
Top_Silk
  10
0.5173
  20
0.1502
  42
0
  0
VERTEX
  8
Top_Silk
  10
0.5115
  20
0.1502
  42
0
  0
SEQEND
  0
POLYLINE
  8
Top_Silk
  6
CONTINUOUS
  66
1
  70
0
  40
0.0031
  41
0.0031
  0
VERTEX
  8
Top_Silk
  10
0.51
  20
0.1502
  42
1
  0
VERTEX
  8
Top_Silk
  10
0.5131
  20
0.1502
  42
1
  0
VERTEX
  8
Top_Silk
  10
0.51
  20
0.1502
  42
1
  0
SEQEND
  0
POLYLINE
  8
Top_Silk
  6
CONTINUOUS
  66
1
  70
0
  40
0.0062
  41
0.0062
  0
VERTEX
  8
Top_Silk
  10
0.5392
  20
0.1502
  42
0
  0
VERTEX
  8
Top_Silk
  10
0.5392
  20
0.1234
  42
0
  0
SEQEND
  0
POLYLINE
  8
Top_Silk
  6
CONTINUOUS
  66
1
  70
0
  40
0.0031
  41
0.0031
  0
VERTEX
  8
Top_Silk
  10
0.5377
  20
0.1502
  42
1
  0
VERTEX
  8
Top_Silk
  10
0.5408
  20
0.1502
  42
1
  0
VERTEX
  8
Top_Silk
  10
0.5377
  20
0.1502
  42
1
  0
SEQEND
  0
POLYLINE
  8
Top_Silk
  6
CONTINUOUS
  66
1
  70
0
  40
0.0031
  41
0.0031
  0
VERTEX
  8
Top_Silk
  10
0.5377
  20
0.1234
  42
1
  0
VERTEX
  8
Top_Silk
  10
0.5408
  20
0.1234
  42
1
  0
VERTEX
  8
Top_Silk
  10
0.5377
  20
0.1234
  42
1
  0
SEQEND
  0
POLYLINE
  8
Top_Silk
  6
CONTINUOUS
  66
1
  70
0
  40
0.0062
  41
0.0062
  0
VERTEX
  8
Top_Silk
  10
0.5392
  20
0.1426
  42
0
  0
VERTEX
  8
Top_Silk
  10
0.545
  20
0.1483
  42
0
  0
VERTEX
  8
Top_Silk
  10
0.5488
  20
0.1502
  42
0
  0
VERTEX
  8
Top_Silk
  10
0.5545
  20
0.1502
  42
0
  0
VERTEX
  8
Top_Silk
  10
0.5584
  20
0.1483
  42
0
  0
VERTEX
  8
Top_Silk
  10
0.5603
  20
0.1426
  42
0
  0
VERTEX
  8
Top_Silk
  10
0.5603
  20
0.1234
  42
0
  0
SEQEND
  0
POLYLINE
  8
Top_Silk
  6
CONTINUOUS
  66
1
  70
0
  40
0.0031
  41
0.0031
  0
VERTEX
  8
Top_Silk
  10
0.5377
  20
0.1426
  42
1
  0
VERTEX
  8
Top_Silk
  10
0.5408
  20
0.1426
  42
1
  0
VERTEX
  8
Top_Silk
  10
0.5377
  20
0.1426
  42
1
  0
SEQEND
  0
POLYLINE
  8
Top_Silk
  6
CONTINUOUS
  66
1
  70
0
  40
0.0031
  41
0.0031
  0
VERTEX
  8
Top_Silk
  10
0.5587
  20
0.1234
  42
1
  0
VERTEX
  8
Top_Silk
  10
0.5618
  20
0.1234
  42
1
  0
VERTEX
  8
Top_Silk
  10
0.5587
  20
0.1234
  42
1
  0
SEQEND
  0
POLYLINE
  8
Top_Silk
  6
CONTINUOUS
  66
1
  70
0
  40
0.0062
  41
0.0062
  0
VERTEX
  8
Top_Silk
  10
0.5726
  20
0.1636
  42
0
  0
VERTEX
  8
Top_Silk
  10
0.5745
  20
0.1617
  42
0
  0
VERTEX
  8
Top_Silk
  10
0.5765
  20
0.1636
  42
0
  0
VERTEX
  8
Top_Silk
  10
0.5745
  20
0.1656
  42
0
  0
VERTEX
  8
Top_Silk
  10
0.5726
  20
0.1636
  42
0
  0
SEQEND
  0
POLYLINE
  8
Top_Silk
  6
CONTINUOUS
  66
1
  70
0
  40
0.0031
  41
0.0031
  0
VERTEX
  8
Top_Silk
  10
0.5711
  20
0.1636
  42
1
  0
VERTEX
  8
Top_Silk
  10
0.5742
  20
0.1636
  42
1
  0
VERTEX
  8
Top_Silk
  10
0.5711
  20
0.1636
  42
1
  0
SEQEND
  0
POLYLINE
  8
Top_Silk
  6
CONTINUOUS
  66
1
  70
0
  40
0.0062
  41
0.0062
  0
VERTEX
  8
Top_Silk
  10
0.5745
  20
0.1502
  42
0
  0
VERTEX
  8
Top_Silk
  10
0.5745
  20
0.1234
  42
0
  0
SEQEND
  0
POLYLINE
  8
Top_Silk
  6
CONTINUOUS
  66
1
  70
0
  40
0.0031
  41
0.0031
  0
VERTEX
  8
Top_Silk
  10
0.573
  20
0.1502
  42
1
  0
VERTEX
  8
Top_Silk
  10
0.5761
  20
0.1502
  42
1
  0
VERTEX
  8
Top_Silk
  10
0.573
  20
0.1502
  42
1
  0
SEQEND
  0
POLYLINE
  8
Top_Silk
  6
CONTINUOUS
  66
1
  70
0
  40
0.0031
  41
0.0031
  0
VERTEX
  8
Top_Silk
  10
0.573
  20
0.1234
  42
1
  0
VERTEX
  8
Top_Silk
  10
0.5761
  20
0.1234
  42
1
  0
VERTEX
  8
Top_Silk
  10
0.573
  20
0.1234
  42
1
  0
SEQEND
  0
POLYLINE
  8
Top_Silk
  6
CONTINUOUS
  66
1
  70
0
  40
0.0062
  41
0.0062
  0
VERTEX
  8
Top_Silk
  10
0.6118
  20
0.1445
  42
0
  0
VERTEX
  8
Top_Silk
  10
0.608
  20
0.1483
  42
0
  0
VERTEX
  8
Top_Silk
  10
0.6041
  20
0.1502
  42
0
  0
VERTEX
  8
Top_Silk
  10
0.5984
  20
0.1502
  42
0
  0
VERTEX
  8
Top_Silk
  10
0.5946
  20
0.1483
  42
0
  0
VERTEX
  8
Top_Silk
  10
0.5908
  20
0.1445
  42
0
  0
VERTEX
  8
Top_Silk
  10
0.5888
  20
0.1387
  42
0
  0
VERTEX
  8
Top_Silk
  10
0.5888
  20
0.1349
  42
0
  0
VERTEX
  8
Top_Silk
  10
0.5908
  20
0.1292
  42
0
  0
VERTEX
  8
Top_Silk
  10
0.5946
  20
0.1254
  42
0
  0
VERTEX
  8
Top_Silk
  10
0.5984
  20
0.1234
  42
0
  0
VERTEX
  8
Top_Silk
  10
0.6041
  20
0.1234
  42
0
  0
VERTEX
  8
Top_Silk
  10
0.608
  20
0.1254
  42
0
  0
VERTEX
  8
Top_Silk
  10
0.6118
  20
0.1292
  42
0
  0
SEQEND
  0
POLYLINE
  8
Top_Silk
  6
CONTINUOUS
  66
1
  70
0
  40
0.0031
  41
0.0031
  0
VERTEX
  8
Top_Silk
  10
0.6103
  20
0.1445
  42
1
  0
VERTEX
  8
Top_Silk
  10
0.6134
  20
0.1445
  42
1
  0
VERTEX
  8
Top_Silk
  10
0.6103
  20
0.1445
  42
1
  0
SEQEND
  0
POLYLINE
  8
Top_Silk
  6
CONTINUOUS
  66
1
  70
0
  40
0.0031
  41
0.0031
  0
VERTEX
  8
Top_Silk
  10
0.6103
  20
0.1292
  42
1
  0
VERTEX
  8
Top_Silk
  10
0.6134
  20
0.1292
  42
1
  0
VERTEX
  8
Top_Silk
  10
0.6103
  20
0.1292
  42
1
  0
SEQEND
  0
POLYLINE
  8
Top_Silk
  6
CONTINUOUS
  66
1
  70
0
  40
0.0062
  41
0.0062
  0
VERTEX
  8
Top_Silk
  10
0.6452
  20
0.1445
  42
0
  0
VERTEX
  8
Top_Silk
  10
0.6433
  20
0.1483
  42
0
  0
VERTEX
  8
Top_Silk
  10
0.6376
  20
0.1502
  42
0
  0
VERTEX
  8
Top_Silk
  10
0.6318
  20
0.1502
  42
0
  0
VERTEX
  8
Top_Silk
  10
0.6261
  20
0.1483
  42
0
  0
VERTEX
  8
Top_Silk
  10
0.6242
  20
0.1445
  42
0
  0
VERTEX
  8
Top_Silk
  10
0.6261
  20
0.1407
  42
0
  0
VERTEX
  8
Top_Silk
  10
0.6299
  20
0.1387
  42
0
  0
VERTEX
  8
Top_Silk
  10
0.6395
  20
0.1368
  42
0
  0
VERTEX
  8
Top_Silk
  10
0.6433
  20
0.1349
  42
0
  0
VERTEX
  8
Top_Silk
  10
0.6452
  20
0.1311
  42
0
  0
VERTEX
  8
Top_Silk
  10
0.6452
  20
0.1292
  42
0
  0
VERTEX
  8
Top_Silk
  10
0.6433
  20
0.1254
  42
0
  0
VERTEX
  8
Top_Silk
  10
0.6376
  20
0.1234
  42
0
  0
VERTEX
  8
Top_Silk
  10
0.6318
  20
0.1234
  42
0
  0
VERTEX
  8
Top_Silk
  10
0.6261
  20
0.1254
  42
0
  0
VERTEX
  8
Top_Silk
  10
0.6242
  20
0.1292
  42
0
  0
SEQEND
  0
POLYLINE
  8
Top_Silk
  6
CONTINUOUS
  66
1
  70
0
  40
0.0031
  41
0.0031
  0
VERTEX
  8
Top_Silk
  10
0.6437
  20
0.1445
  42
1
  0
VERTEX
  8
Top_Silk
  10
0.6468
  20
0.1445
  42
1
  0
VERTEX
  8
Top_Silk
  10
0.6437
  20
0.1445
  42
1
  0
SEQEND
  0
POLYLINE
  8
Top_Silk
  6
CONTINUOUS
  66
1
  70
0
  40
0.0031
  41
0.0031
  0
VERTEX
  8
Top_Silk
  10
0.6226
  20
0.1292
  42
1
  0
VERTEX
  8
Top_Silk
  10
0.6257
  20
0.1292
  42
1
  0
VERTEX
  8
Top_Silk
  10
0.6226
  20
0.1292
  42
1
  0
SEQEND
  0
POLYLINE
  8
Top_Silk
  6
CONTINUOUS
  66
1
  70
0
  40
0.0062
  41
0.0062
  0
VERTEX
  8
Top_Silk
  10
0.2201
  20
0.0833
  42
0
  0
VERTEX
  8
Top_Silk
  10
0.2278
  20
0.0565
  42
0
  0
VERTEX
  8
Top_Silk
  10
0.2354
  20
0.0833
  42
0
  0
VERTEX
  8
Top_Silk
  10
0.2431
  20
0.0565
  42
0
  0
VERTEX
  8
Top_Silk
  10
0.2507
  20
0.0833
  42
0
  0
SEQEND
  0
POLYLINE
  8
Top_Silk
  6
CONTINUOUS
  66
1
  70
0
  40
0.0031
  41
0.0031
  0
VERTEX
  8
Top_Silk
  10
0.2186
  20
0.0833
  42
1
  0
VERTEX
  8
Top_Silk
  10
0.2217
  20
0.0833
  42
1
  0
VERTEX
  8
Top_Silk
  10
0.2186
  20
0.0833
  42
1
  0
SEQEND
  0
POLYLINE
  8
Top_Silk
  6
CONTINUOUS
  66
1
  70
0
  40
0.0031
  41
0.0031
  0
VERTEX
  8
Top_Silk
  10
0.2492
  20
0.0833
  42
1
  0
VERTEX
  8
Top_Silk
  10
0.2523
  20
0.0833
  42
1
  0
VERTEX
  8
Top_Silk
  10
0.2492
  20
0.0833
  42
1
  0
SEQEND
  0
POLYLINE
  8
Top_Silk
  6
CONTINUOUS
  66
1
  70
0
  40
0.0062
  41
0.0062
  0
VERTEX
  8
Top_Silk
  10
0.2631
  20
0.0833
  42
0
  0
VERTEX
  8
Top_Silk
  10
0.2707
  20
0.0565
  42
0
  0
VERTEX
  8
Top_Silk
  10
0.2784
  20
0.0833
  42
0
  0
VERTEX
  8
Top_Silk
  10
0.286
  20
0.0565
  42
0
  0
VERTEX
  8
Top_Silk
  10
0.2937
  20
0.0833
  42
0
  0
SEQEND
  0
POLYLINE
  8
Top_Silk
  6
CONTINUOUS
  66
1
  70
0
  40
0.0031
  41
0.0031
  0
VERTEX
  8
Top_Silk
  10
0.2615
  20
0.0833
  42
1
  0
VERTEX
  8
Top_Silk
  10
0.2646
  20
0.0833
  42
1
  0
VERTEX
  8
Top_Silk
  10
0.2615
  20
0.0833
  42
1
  0
SEQEND
  0
POLYLINE
  8
Top_Silk
  6
CONTINUOUS
  66
1
  70
0
  40
0.0031
  41
0.0031
  0
VERTEX
  8
Top_Silk
  10
0.2921
  20
0.0833
  42
1
  0
VERTEX
  8
Top_Silk
  10
0.2952
  20
0.0833
  42
1
  0
VERTEX
  8
Top_Silk
  10
0.2921
  20
0.0833
  42
1
  0
SEQEND
  0
POLYLINE
  8
Top_Silk
  6
CONTINUOUS
  66
1
  70
0
  40
0.0062
  41
0.0062
  0
VERTEX
  8
Top_Silk
  10
0.306
  20
0.0833
  42
0
  0
VERTEX
  8
Top_Silk
  10
0.3137
  20
0.0565
  42
0
  0
VERTEX
  8
Top_Silk
  10
0.3213
  20
0.0833
  42
0
  0
VERTEX
  8
Top_Silk
  10
0.329
  20
0.0565
  42
0
  0
VERTEX
  8
Top_Silk
  10
0.3366
  20
0.0833
  42
0
  0
SEQEND
  0
POLYLINE
  8
Top_Silk
  6
CONTINUOUS
  66
1
  70
0
  40
0.0031
  41
0.0031
  0
VERTEX
  8
Top_Silk
  10
0.3045
  20
0.0833
  42
1
  0
VERTEX
  8
Top_Silk
  10
0.3076
  20
0.0833
  42
1
  0
VERTEX
  8
Top_Silk
  10
0.3045
  20
0.0833
  42
1
  0
SEQEND
  0
POLYLINE
  8
Top_Silk
  6
CONTINUOUS
  66
1
  70
0
  40
0.0031
  41
0.0031
  0
VERTEX
  8
Top_Silk
  10
0.3351
  20
0.0833
  42
1
  0
VERTEX
  8
Top_Silk
  10
0.3382
  20
0.0833
  42
1
  0
VERTEX
  8
Top_Silk
  10
0.3351
  20
0.0833
  42
1
  0
SEQEND
  0
POLYLINE
  8
Top_Silk
  6
CONTINUOUS
  66
1
  70
0
  40
0.0062
  41
0.0062
  0
VERTEX
  8
Top_Silk
  10
0.3509
  20
0.0604
  42
0
  0
VERTEX
  8
Top_Silk
  10
0.349
  20
0.0584
  42
0
  0
VERTEX
  8
Top_Silk
  10
0.3509
  20
0.0565
  42
0
  0
VERTEX
  8
Top_Silk
  10
0.3528
  20
0.0584
  42
0
  0
VERTEX
  8
Top_Silk
  10
0.3509
  20
0.0604
  42
0
  0
SEQEND
  0
POLYLINE
  8
Top_Silk
  6
CONTINUOUS
  66
1
  70
0
  40
0.0031
  41
0.0031
  0
VERTEX
  8
Top_Silk
  10
0.3493
  20
0.0604
  42
1
  0
VERTEX
  8
Top_Silk
  10
0.3524
  20
0.0604
  42
1
  0
VERTEX
  8
Top_Silk
  10
0.3493
  20
0.0604
  42
1
  0
SEQEND
  0
POLYLINE
  8
Top_Silk
  6
CONTINUOUS
  66
1
  70
0
  40
0.0062
  41
0.0062
  0
VERTEX
  8
Top_Silk
  10
0.3728
  20
0.0967
  42
0
  0
VERTEX
  8
Top_Silk
  10
0.3748
  20
0.0948
  42
0
  0
VERTEX
  8
Top_Silk
  10
0.3767
  20
0.0967
  42
0
  0
VERTEX
  8
Top_Silk
  10
0.3748
  20
0.0986
  42
0
  0
VERTEX
  8
Top_Silk
  10
0.3728
  20
0.0967
  42
0
  0
SEQEND
  0
POLYLINE
  8
Top_Silk
  6
CONTINUOUS
  66
1
  70
0
  40
0.0031
  41
0.0031
  0
VERTEX
  8
Top_Silk
  10
0.3713
  20
0.0967
  42
1
  0
VERTEX
  8
Top_Silk
  10
0.3744
  20
0.0967
  42
1
  0
VERTEX
  8
Top_Silk
  10
0.3713
  20
0.0967
  42
1
  0
SEQEND
  0
POLYLINE
  8
Top_Silk
  6
CONTINUOUS
  66
1
  70
0
  40
0.0062
  41
0.0062
  0
VERTEX
  8
Top_Silk
  10
0.3748
  20
0.0833
  42
0
  0
VERTEX
  8
Top_Silk
  10
0.3748
  20
0.0508
  42
0
  0
VERTEX
  8
Top_Silk
  10
0.3728
  20
0.0451
  42
0
  0
VERTEX
  8
Top_Silk
  10
0.369
  20
0.0432
  42
0
  0
VERTEX
  8
Top_Silk
  10
0.3652
  20
0.0432
  42
0
  0
SEQEND
  0
POLYLINE
  8
Top_Silk
  6
CONTINUOUS
  66
1
  70
0
  40
0.0031
  41
0.0031
  0
VERTEX
  8
Top_Silk
  10
0.3732
  20
0.0833
  42
1
  0
VERTEX
  8
Top_Silk
  10
0.3763
  20
0.0833
  42
1
  0
VERTEX
  8
Top_Silk
  10
0.3732
  20
0.0833
  42
1
  0
SEQEND
  0
POLYLINE
  8
Top_Silk
  6
CONTINUOUS
  66
1
  70
0
  40
0.0031
  41
0.0031
  0
VERTEX
  8
Top_Silk
  10
0.3636
  20
0.0432
  42
1
  0
VERTEX
  8
Top_Silk
  10
0.3667
  20
0.0432
  42
1
  0
VERTEX
  8
Top_Silk
  10
0.3636
  20
0.0432
  42
1
  0
SEQEND
  0
POLYLINE
  8
Top_Silk
  6
CONTINUOUS
  66
1
  70
0
  40
0.0062
  41
0.0062
  0
VERTEX
  8
Top_Silk
  10
0.389
  20
0.0967
  42
0
  0
VERTEX
  8
Top_Silk
  10
0.389
  20
0.0565
  42
0
  0
SEQEND
  0
POLYLINE
  8
Top_Silk
  6
CONTINUOUS
  66
1
  70
0
  40
0.0031
  41
0.0031
  0
VERTEX
  8
Top_Silk
  10
0.3875
  20
0.0967
  42
1
  0
VERTEX
  8
Top_Silk
  10
0.3906
  20
0.0967
  42
1
  0
VERTEX
  8
Top_Silk
  10
0.3875
  20
0.0967
  42
1
  0
SEQEND
  0
POLYLINE
  8
Top_Silk
  6
CONTINUOUS
  66
1
  70
0
  40
0.0031
  41
0.0031
  0
VERTEX
  8
Top_Silk
  10
0.3875
  20
0.0565
  42
1
  0
VERTEX
  8
Top_Silk
  10
0.3906
  20
0.0565
  42
1
  0
VERTEX
  8
Top_Silk
  10
0.3875
  20
0.0565
  42
1
  0
SEQEND
  0
POLYLINE
  8
Top_Silk
  6
CONTINUOUS
  66
1
  70
0
  40
0.0062
  41
0.0062
  0
VERTEX
  8
Top_Silk
  10
0.4082
  20
0.0833
  42
0
  0
VERTEX
  8
Top_Silk
  10
0.389
  20
0.0642
  42
0
  0
SEQEND
  0
POLYLINE
  8
Top_Silk
  6
CONTINUOUS
  66
1
  70
0
  40
0.0031
  41
0.0031
  0
VERTEX
  8
Top_Silk
  10
0.4066
  20
0.0833
  42
1
  0
VERTEX
  8
Top_Silk
  10
0.4097
  20
0.0833
  42
1
  0
VERTEX
  8
Top_Silk
  10
0.4066
  20
0.0833
  42
1
  0
SEQEND
  0
POLYLINE
  8
Top_Silk
  6
CONTINUOUS
  66
1
  70
0
  40
0.0031
  41
0.0031
  0
VERTEX
  8
Top_Silk
  10
0.3875
  20
0.0642
  42
1
  0
VERTEX
  8
Top_Silk
  10
0.3906
  20
0.0642
  42
1
  0
VERTEX
  8
Top_Silk
  10
0.3875
  20
0.0642
  42
1
  0
SEQEND
  0
POLYLINE
  8
Top_Silk
  6
CONTINUOUS
  66
1
  70
0
  40
0.0062
  41
0.0062
  0
VERTEX
  8
Top_Silk
  10
0.3967
  20
0.0718
  42
0
  0
VERTEX
  8
Top_Silk
  10
0.4101
  20
0.0565
  42
0
  0
SEQEND
  0
POLYLINE
  8
Top_Silk
  6
CONTINUOUS
  66
1
  70
0
  40
0.0031
  41
0.0031
  0
VERTEX
  8
Top_Silk
  10
0.3951
  20
0.0718
  42
1
  0
VERTEX
  8
Top_Silk
  10
0.3982
  20
0.0718
  42
1
  0
VERTEX
  8
Top_Silk
  10
0.3951
  20
0.0718
  42
1
  0
SEQEND
  0
POLYLINE
  8
Top_Silk
  6
CONTINUOUS
  66
1
  70
0
  40
0.0031
  41
0.0031
  0
VERTEX
  8
Top_Silk
  10
0.4085
  20
0.0565
  42
1
  0
VERTEX
  8
Top_Silk
  10
0.4116
  20
0.0565
  42
1
  0
VERTEX
  8
Top_Silk
  10
0.4085
  20
0.0565
  42
1
  0
SEQEND
  0
POLYLINE
  8
Top_Silk
  6
CONTINUOUS
  66
1
  70
0
  40
0.0062
  41
0.0062
  0
VERTEX
  8
Top_Silk
  10
0.4224
  20
0.0718
  42
0
  0
VERTEX
  8
Top_Silk
  10
0.4454
  20
0.0718
  42
0
  0
VERTEX
  8
Top_Silk
  10
0.4454
  20
0.0757
  42
0
  0
VERTEX
  8
Top_Silk
  10
0.4435
  20
0.0795
  42
0
  0
VERTEX
  8
Top_Silk
  10
0.4416
  20
0.0814
  42
0
  0
VERTEX
  8
Top_Silk
  10
0.4377
  20
0.0833
  42
0
  0
VERTEX
  8
Top_Silk
  10
0.432
  20
0.0833
  42
0
  0
VERTEX
  8
Top_Silk
  10
0.4282
  20
0.0814
  42
0
  0
VERTEX
  8
Top_Silk
  10
0.4243
  20
0.0776
  42
0
  0
VERTEX
  8
Top_Silk
  10
0.4224
  20
0.0718
  42
0
  0
VERTEX
  8
Top_Silk
  10
0.4224
  20
0.068
  42
0
  0
VERTEX
  8
Top_Silk
  10
0.4243
  20
0.0623
  42
0
  0
VERTEX
  8
Top_Silk
  10
0.4282
  20
0.0585
  42
0
  0
VERTEX
  8
Top_Silk
  10
0.432
  20
0.0565
  42
0
  0
VERTEX
  8
Top_Silk
  10
0.4377
  20
0.0565
  42
0
  0
VERTEX
  8
Top_Silk
  10
0.4416
  20
0.0585
  42
0
  0
VERTEX
  8
Top_Silk
  10
0.4454
  20
0.0623
  42
0
  0
SEQEND
  0
POLYLINE
  8
Top_Silk
  6
CONTINUOUS
  66
1
  70
0
  40
0.0031
  41
0.0031
  0
VERTEX
  8
Top_Silk
  10
0.4209
  20
0.0718
  42
1
  0
VERTEX
  8
Top_Silk
  10
0.424
  20
0.0718
  42
1
  0
VERTEX
  8
Top_Silk
  10
0.4209
  20
0.0718
  42
1
  0
SEQEND
  0
POLYLINE
  8
Top_Silk
  6
CONTINUOUS
  66
1
  70
0
  40
0.0031
  41
0.0031
  0
VERTEX
  8
Top_Silk
  10
0.4438
  20
0.0623
  42
1
  0
VERTEX
  8
Top_Silk
  10
0.4469
  20
0.0623
  42
1
  0
VERTEX
  8
Top_Silk
  10
0.4438
  20
0.0623
  42
1
  0
SEQEND
  0
POLYLINE
  8
Top_Silk
  6
CONTINUOUS
  66
1
  70
0
  40
0.0062
  41
0.0062
  0
VERTEX
  8
Top_Silk
  10
0.4577
  20
0.0967
  42
0
  0
VERTEX
  8
Top_Silk
  10
0.4577
  20
0.0565
  42
0
  0
SEQEND
  0
POLYLINE
  8
Top_Silk
  6
CONTINUOUS
  66
1
  70
0
  40
0.0031
  41
0.0031
  0
VERTEX
  8
Top_Silk
  10
0.4562
  20
0.0967
  42
1
  0
VERTEX
  8
Top_Silk
  10
0.4593
  20
0.0967
  42
1
  0
VERTEX
  8
Top_Silk
  10
0.4562
  20
0.0967
  42
1
  0
SEQEND
  0
POLYLINE
  8
Top_Silk
  6
CONTINUOUS
  66
1
  70
0
  40
0.0031
  41
0.0031
  0
VERTEX
  8
Top_Silk
  10
0.4562
  20
0.0565
  42
1
  0
VERTEX
  8
Top_Silk
  10
0.4593
  20
0.0565
  42
1
  0
VERTEX
  8
Top_Silk
  10
0.4562
  20
0.0565
  42
1
  0
SEQEND
  0
POLYLINE
  8
Top_Silk
  6
CONTINUOUS
  66
1
  70
0
  40
0.0062
  41
0.0062
  0
VERTEX
  8
Top_Silk
  10
0.4701
  20
0.0718
  42
0
  0
VERTEX
  8
Top_Silk
  10
0.493
  20
0.0718
  42
0
  0
VERTEX
  8
Top_Silk
  10
0.493
  20
0.0757
  42
0
  0
VERTEX
  8
Top_Silk
  10
0.4911
  20
0.0795
  42
0
  0
VERTEX
  8
Top_Silk
  10
0.4892
  20
0.0814
  42
0
  0
VERTEX
  8
Top_Silk
  10
0.4854
  20
0.0833
  42
0
  0
VERTEX
  8
Top_Silk
  10
0.4796
  20
0.0833
  42
0
  0
VERTEX
  8
Top_Silk
  10
0.4758
  20
0.0814
  42
0
  0
VERTEX
  8
Top_Silk
  10
0.472
  20
0.0776
  42
0
  0
VERTEX
  8
Top_Silk
  10
0.4701
  20
0.0718
  42
0
  0
VERTEX
  8
Top_Silk
  10
0.4701
  20
0.068
  42
0
  0
VERTEX
  8
Top_Silk
  10
0.472
  20
0.0623
  42
0
  0
VERTEX
  8
Top_Silk
  10
0.4758
  20
0.0585
  42
0
  0
VERTEX
  8
Top_Silk
  10
0.4796
  20
0.0565
  42
0
  0
VERTEX
  8
Top_Silk
  10
0.4854
  20
0.0565
  42
0
  0
VERTEX
  8
Top_Silk
  10
0.4892
  20
0.0585
  42
0
  0
VERTEX
  8
Top_Silk
  10
0.493
  20
0.0623
  42
0
  0
SEQEND
  0
POLYLINE
  8
Top_Silk
  6
CONTINUOUS
  66
1
  70
0
  40
0.0031
  41
0.0031
  0
VERTEX
  8
Top_Silk
  10
0.4685
  20
0.0718
  42
1
  0
VERTEX
  8
Top_Silk
  10
0.4716
  20
0.0718
  42
1
  0
VERTEX
  8
Top_Silk
  10
0.4685
  20
0.0718
  42
1
  0
SEQEND
  0
POLYLINE
  8
Top_Silk
  6
CONTINUOUS
  66
1
  70
0
  40
0.0031
  41
0.0031
  0
VERTEX
  8
Top_Silk
  10
0.4915
  20
0.0623
  42
1
  0
VERTEX
  8
Top_Silk
  10
0.4946
  20
0.0623
  42
1
  0
VERTEX
  8
Top_Silk
  10
0.4915
  20
0.0623
  42
1
  0
SEQEND
  0
POLYLINE
  8
Top_Silk
  6
CONTINUOUS
  66
1
  70
0
  40
0.0062
  41
0.0062
  0
VERTEX
  8
Top_Silk
  10
0.5284
  20
0.0776
  42
0
  0
VERTEX
  8
Top_Silk
  10
0.5245
  20
0.0814
  42
0
  0
VERTEX
  8
Top_Silk
  10
0.5207
  20
0.0833
  42
0
  0
VERTEX
  8
Top_Silk
  10
0.515
  20
0.0833
  42
0
  0
VERTEX
  8
Top_Silk
  10
0.5111
  20
0.0814
  42
0
  0
VERTEX
  8
Top_Silk
  10
0.5073
  20
0.0776
  42
0
  0
VERTEX
  8
Top_Silk
  10
0.5054
  20
0.0718
  42
0
  0
VERTEX
  8
Top_Silk
  10
0.5054
  20
0.068
  42
0
  0
VERTEX
  8
Top_Silk
  10
0.5073
  20
0.0623
  42
0
  0
VERTEX
  8
Top_Silk
  10
0.5111
  20
0.0585
  42
0
  0
VERTEX
  8
Top_Silk
  10
0.515
  20
0.0565
  42
0
  0
VERTEX
  8
Top_Silk
  10
0.5207
  20
0.0565
  42
0
  0
VERTEX
  8
Top_Silk
  10
0.5245
  20
0.0585
  42
0
  0
VERTEX
  8
Top_Silk
  10
0.5284
  20
0.0623
  42
0
  0
SEQEND
  0
POLYLINE
  8
Top_Silk
  6
CONTINUOUS
  66
1
  70
0
  40
0.0031
  41
0.0031
  0
VERTEX
  8
Top_Silk
  10
0.5268
  20
0.0776
  42
1
  0
VERTEX
  8
Top_Silk
  10
0.5299
  20
0.0776
  42
1
  0
VERTEX
  8
Top_Silk
  10
0.5268
  20
0.0776
  42
1
  0
SEQEND
  0
POLYLINE
  8
Top_Silk
  6
CONTINUOUS
  66
1
  70
0
  40
0.0031
  41
0.0031
  0
VERTEX
  8
Top_Silk
  10
0.5268
  20
0.0623
  42
1
  0
VERTEX
  8
Top_Silk
  10
0.5299
  20
0.0623
  42
1
  0
VERTEX
  8
Top_Silk
  10
0.5268
  20
0.0623
  42
1
  0
SEQEND
  0
POLYLINE
  8
Top_Silk
  6
CONTINUOUS
  66
1
  70
0
  40
0.0062
  41
0.0062
  0
VERTEX
  8
Top_Silk
  10
0.5426
  20
0.0604
  42
0
  0
VERTEX
  8
Top_Silk
  10
0.5407
  20
0.0584
  42
0
  0
VERTEX
  8
Top_Silk
  10
0.5426
  20
0.0565
  42
0
  0
VERTEX
  8
Top_Silk
  10
0.5446
  20
0.0584
  42
0
  0
VERTEX
  8
Top_Silk
  10
0.5426
  20
0.0604
  42
0
  0
SEQEND
  0
POLYLINE
  8
Top_Silk
  6
CONTINUOUS
  66
1
  70
0
  40
0.0031
  41
0.0031
  0
VERTEX
  8
Top_Silk
  10
0.5411
  20
0.0604
  42
1
  0
VERTEX
  8
Top_Silk
  10
0.5442
  20
0.0604
  42
1
  0
VERTEX
  8
Top_Silk
  10
0.5411
  20
0.0604
  42
1
  0
SEQEND
  0
POLYLINE
  8
Top_Silk
  6
CONTINUOUS
  66
1
  70
0
  40
0.0062
  41
0.0062
  0
VERTEX
  8
Top_Silk
  10
0.5799
  20
0.0776
  42
0
  0
VERTEX
  8
Top_Silk
  10
0.5761
  20
0.0814
  42
0
  0
VERTEX
  8
Top_Silk
  10
0.5722
  20
0.0833
  42
0
  0
VERTEX
  8
Top_Silk
  10
0.5665
  20
0.0833
  42
0
  0
VERTEX
  8
Top_Silk
  10
0.5627
  20
0.0814
  42
0
  0
VERTEX
  8
Top_Silk
  10
0.5589
  20
0.0776
  42
0
  0
VERTEX
  8
Top_Silk
  10
0.5569
  20
0.0718
  42
0
  0
VERTEX
  8
Top_Silk
  10
0.5569
  20
0.068
  42
0
  0
VERTEX
  8
Top_Silk
  10
0.5589
  20
0.0623
  42
0
  0
VERTEX
  8
Top_Silk
  10
0.5627
  20
0.0585
  42
0
  0
VERTEX
  8
Top_Silk
  10
0.5665
  20
0.0565
  42
0
  0
VERTEX
  8
Top_Silk
  10
0.5722
  20
0.0565
  42
0
  0
VERTEX
  8
Top_Silk
  10
0.5761
  20
0.0585
  42
0
  0
VERTEX
  8
Top_Silk
  10
0.5799
  20
0.0623
  42
0
  0
SEQEND
  0
POLYLINE
  8
Top_Silk
  6
CONTINUOUS
  66
1
  70
0
  40
0.0031
  41
0.0031
  0
VERTEX
  8
Top_Silk
  10
0.5784
  20
0.0776
  42
1
  0
VERTEX
  8
Top_Silk
  10
0.5815
  20
0.0776
  42
1
  0
VERTEX
  8
Top_Silk
  10
0.5784
  20
0.0776
  42
1
  0
SEQEND
  0
POLYLINE
  8
Top_Silk
  6
CONTINUOUS
  66
1
  70
0
  40
0.0031
  41
0.0031
  0
VERTEX
  8
Top_Silk
  10
0.5784
  20
0.0623
  42
1
  0
VERTEX
  8
Top_Silk
  10
0.5815
  20
0.0623
  42
1
  0
VERTEX
  8
Top_Silk
  10
0.5784
  20
0.0623
  42
1
  0
SEQEND
  0
POLYLINE
  8
Top_Silk
  6
CONTINUOUS
  66
1
  70
0
  40
0.0062
  41
0.0062
  0
VERTEX
  8
Top_Silk
  10
0.6018
  20
0.0833
  42
0
  0
VERTEX
  8
Top_Silk
  10
0.598
  20
0.0814
  42
0
  0
VERTEX
  8
Top_Silk
  10
0.5942
  20
0.0776
  42
0
  0
VERTEX
  8
Top_Silk
  10
0.5923
  20
0.0718
  42
0
  0
VERTEX
  8
Top_Silk
  10
0.5923
  20
0.068
  42
0
  0
VERTEX
  8
Top_Silk
  10
0.5942
  20
0.0623
  42
0
  0
VERTEX
  8
Top_Silk
  10
0.598
  20
0.0585
  42
0
  0
VERTEX
  8
Top_Silk
  10
0.6018
  20
0.0565
  42
0
  0
VERTEX
  8
Top_Silk
  10
0.6076
  20
0.0565
  42
0
  0
VERTEX
  8
Top_Silk
  10
0.6114
  20
0.0585
  42
0
  0
VERTEX
  8
Top_Silk
  10
0.6152
  20
0.0623
  42
0
  0
VERTEX
  8
Top_Silk
  10
0.6172
  20
0.068
  42
0
  0
VERTEX
  8
Top_Silk
  10
0.6172
  20
0.0718
  42
0
  0
VERTEX
  8
Top_Silk
  10
0.6152
  20
0.0776
  42
0
  0
VERTEX
  8
Top_Silk
  10
0.6114
  20
0.0814
  42
0
  0
VERTEX
  8
Top_Silk
  10
0.6076
  20
0.0833
  42
0
  0
VERTEX
  8
Top_Silk
  10
0.6018
  20
0.0833
  42
0
  0
SEQEND
  0
POLYLINE
  8
Top_Silk
  6
CONTINUOUS
  66
1
  70
0
  40
0.0031
  41
0.0031
  0
VERTEX
  8
Top_Silk
  10
0.6003
  20
0.0833
  42
1
  0
VERTEX
  8
Top_Silk
  10
0.6034
  20
0.0833
  42
1
  0
VERTEX
  8
Top_Silk
  10
0.6003
  20
0.0833
  42
1
  0
SEQEND
  0
POLYLINE
  8
Top_Silk
  6
CONTINUOUS
  66
1
  70
0
  40
0.0062
  41
0.0062
  0
VERTEX
  8
Top_Silk
  10
0.6314
  20
0.0604
  42
0
  0
VERTEX
  8
Top_Silk
  10
0.6295
  20
0.0584
  42
0
  0
VERTEX
  8
Top_Silk
  10
0.6314
  20
0.0565
  42
0
  0
VERTEX
  8
Top_Silk
  10
0.6334
  20
0.0584
  42
0
  0
VERTEX
  8
Top_Silk
  10
0.6314
  20
0.0604
  42
0
  0
SEQEND
  0
POLYLINE
  8
Top_Silk
  6
CONTINUOUS
  66
1
  70
0
  40
0.0031
  41
0.0031
  0
VERTEX
  8
Top_Silk
  10
0.6299
  20
0.0604
  42
1
  0
VERTEX
  8
Top_Silk
  10
0.6329
  20
0.0604
  42
1
  0
VERTEX
  8
Top_Silk
  10
0.6299
  20
0.0604
  42
1
  0
SEQEND
  0
POLYLINE
  8
Top_Silk
  6
CONTINUOUS
  66
1
  70
0
  40
0.0062
  41
0.0062
  0
VERTEX
  8
Top_Silk
  10
0.6457
  20
0.0967
  42
0
  0
VERTEX
  8
Top_Silk
  10
0.6457
  20
0.0565
  42
0
  0
SEQEND
  0
POLYLINE
  8
Top_Silk
  6
CONTINUOUS
  66
1
  70
0
  40
0.0031
  41
0.0031
  0
VERTEX
  8
Top_Silk
  10
0.6442
  20
0.0967
  42
1
  0
VERTEX
  8
Top_Silk
  10
0.6472
  20
0.0967
  42
1
  0
VERTEX
  8
Top_Silk
  10
0.6442
  20
0.0967
  42
1
  0
SEQEND
  0
POLYLINE
  8
Top_Silk
  6
CONTINUOUS
  66
1
  70
0
  40
0.0031
  41
0.0031
  0
VERTEX
  8
Top_Silk
  10
0.6442
  20
0.0565
  42
1
  0
VERTEX
  8
Top_Silk
  10
0.6472
  20
0.0565
  42
1
  0
VERTEX
  8
Top_Silk
  10
0.6442
  20
0.0565
  42
1
  0
SEQEND
  0
POLYLINE
  8
Top_Silk
  6
CONTINUOUS
  66
1
  70
0
  40
0.0062
  41
0.0062
  0
VERTEX
  8
Top_Silk
  10
0.6648
  20
0.0833
  42
0
  0
VERTEX
  8
Top_Silk
  10
0.6457
  20
0.0642
  42
0
  0
SEQEND
  0
POLYLINE
  8
Top_Silk
  6
CONTINUOUS
  66
1
  70
0
  40
0.0031
  41
0.0031
  0
VERTEX
  8
Top_Silk
  10
0.6633
  20
0.0833
  42
1
  0
VERTEX
  8
Top_Silk
  10
0.6664
  20
0.0833
  42
1
  0
VERTEX
  8
Top_Silk
  10
0.6633
  20
0.0833
  42
1
  0
SEQEND
  0
POLYLINE
  8
Top_Silk
  6
CONTINUOUS
  66
1
  70
0
  40
0.0031
  41
0.0031
  0
VERTEX
  8
Top_Silk
  10
0.6442
  20
0.0642
  42
1
  0
VERTEX
  8
Top_Silk
  10
0.6472
  20
0.0642
  42
1
  0
VERTEX
  8
Top_Silk
  10
0.6442
  20
0.0642
  42
1
  0
SEQEND
  0
POLYLINE
  8
Top_Silk
  6
CONTINUOUS
  66
1
  70
0
  40
0.0062
  41
0.0062
  0
VERTEX
  8
Top_Silk
  10
0.6534
  20
0.0718
  42
0
  0
VERTEX
  8
Top_Silk
  10
0.6667
  20
0.0565
  42
0
  0
SEQEND
  0
POLYLINE
  8
Top_Silk
  6
CONTINUOUS
  66
1
  70
0
  40
0.0031
  41
0.0031
  0
VERTEX
  8
Top_Silk
  10
0.6518
  20
0.0718
  42
1
  0
VERTEX
  8
Top_Silk
  10
0.6549
  20
0.0718
  42
1
  0
VERTEX
  8
Top_Silk
  10
0.6518
  20
0.0718
  42
1
  0
SEQEND
  0
POLYLINE
  8
Top_Silk
  6
CONTINUOUS
  66
1
  70
0
  40
0.0031
  41
0.0031
  0
VERTEX
  8
Top_Silk
  10
0.6652
  20
0.0565
  42
1
  0
VERTEX
  8
Top_Silk
  10
0.6683
  20
0.0565
  42
1
  0
VERTEX
  8
Top_Silk
  10
0.6652
  20
0.0565
  42
1
  0
SEQEND
  0
POLYLINE
  8
Top_Silk
  6
CONTINUOUS
  66
1
  70
0
  40
0.0062
  41
0.0062
  0
VERTEX
  8
Top_Silk
  10
0.6791
  20
0.0833
  42
0
  0
VERTEX
  8
Top_Silk
  10
0.6791
  20
0.0565
  42
0
  0
SEQEND
  0
POLYLINE
  8
Top_Silk
  6
CONTINUOUS
  66
1
  70
0
  40
0.0031
  41
0.0031
  0
VERTEX
  8
Top_Silk
  10
0.6776
  20
0.0833
  42
1
  0
VERTEX
  8
Top_Silk
  10
0.6806
  20
0.0833
  42
1
  0
VERTEX
  8
Top_Silk
  10
0.6776
  20
0.0833
  42
1
  0
SEQEND
  0
POLYLINE
  8
Top_Silk
  6
CONTINUOUS
  66
1
  70
0
  40
0.0031
  41
0.0031
  0
VERTEX
  8
Top_Silk
  10
0.6776
  20
0.0565
  42
1
  0
VERTEX
  8
Top_Silk
  10
0.6806
  20
0.0565
  42
1
  0
VERTEX
  8
Top_Silk
  10
0.6776
  20
0.0565
  42
1
  0
SEQEND
  0
POLYLINE
  8
Top_Silk
  6
CONTINUOUS
  66
1
  70
0
  40
0.0062
  41
0.0062
  0
VERTEX
  8
Top_Silk
  10
0.6791
  20
0.0718
  42
0
  0
VERTEX
  8
Top_Silk
  10
0.681
  20
0.0776
  42
0
  0
VERTEX
  8
Top_Silk
  10
0.6848
  20
0.0814
  42
0
  0
VERTEX
  8
Top_Silk
  10
0.6887
  20
0.0833
  42
0
  0
VERTEX
  8
Top_Silk
  10
0.6944
  20
0.0833
  42
0
  0
SEQEND
  0
POLYLINE
  8
Top_Silk
  6
CONTINUOUS
  66
1
  70
0
  40
0.0031
  41
0.0031
  0
VERTEX
  8
Top_Silk
  10
0.6776
  20
0.0718
  42
1
  0
VERTEX
  8
Top_Silk
  10
0.6806
  20
0.0718
  42
1
  0
VERTEX
  8
Top_Silk
  10
0.6776
  20
0.0718
  42
1
  0
SEQEND
  0
POLYLINE
  8
Top_Silk
  6
CONTINUOUS
  66
1
  70
0
  40
0.0031
  41
0.0031
  0
VERTEX
  8
Top_Silk
  10
0.6929
  20
0.0833
  42
1
  0
VERTEX
  8
Top_Silk
  10
0.696
  20
0.0833
  42
1
  0
VERTEX
  8
Top_Silk
  10
0.6929
  20
0.0833
  42
1
  0
SEQEND
  0
POLYLINE
  8
Top_Silk
  6
CONTINUOUS
  66
1
  70
0
  40
0.008
  41
0.008
  0
VERTEX
  8
Top_Silk
  10
1.2309
  20
0.5398
  42
0
  0
VERTEX
  8
Top_Silk
  10
1.2059
  20
0.5648
  42
0
  0
SEQEND
  0
POLYLINE
  8
Top_Silk
  6
CONTINUOUS
  66
1
  70
0
  40
0.008
  41
0.008
  0
VERTEX
  8
Top_Silk
  10
1.2059
  20
0.5648
  42
0
  0
VERTEX
  8
Top_Silk
  10
1.2059
  20
0.6148
  42
0
  0
SEQEND
  0
POLYLINE
  8
Top_Silk
  6
CONTINUOUS
  66
1
  70
0
  40
0.008
  41
0.008
  0
VERTEX
  8
Top_Silk
  10
1.2059
  20
0.6148
  42
0
  0
VERTEX
  8
Top_Silk
  10
1.2309
  20
0.6398
  42
0
  0
SEQEND
  0
POLYLINE
  8
Top_Silk
  6
CONTINUOUS
  66
1
  70
0
  40
0.008
  41
0.008
  0
VERTEX
  8
Top_Silk
  10
1.2809
  20
0.6398
  42
0
  0
VERTEX
  8
Top_Silk
  10
1.3059
  20
0.6148
  42
0
  0
SEQEND
  0
POLYLINE
  8
Top_Silk
  6
CONTINUOUS
  66
1
  70
0
  40
0.008
  41
0.008
  0
VERTEX
  8
Top_Silk
  10
1.3059
  20
0.6148
  42
0
  0
VERTEX
  8
Top_Silk
  10
1.3059
  20
0.5648
  42
0
  0
SEQEND
  0
POLYLINE
  8
Top_Silk
  6
CONTINUOUS
  66
1
  70
0
  40
0.008
  41
0.008
  0
VERTEX
  8
Top_Silk
  10
1.3059
  20
0.5648
  42
0
  0
VERTEX
  8
Top_Silk
  10
1.2809
  20
0.5398
  42
0
  0
SEQEND
  0
POLYLINE
  8
Top_Silk
  6
CONTINUOUS
  66
1
  70
0
  40
0.008
  41
0.008
  0
VERTEX
  8
Top_Silk
  10
1.2059
  20
0.3648
  42
0
  0
VERTEX
  8
Top_Silk
  10
1.2059
  20
0.4148
  42
0
  0
SEQEND
  0
POLYLINE
  8
Top_Silk
  6
CONTINUOUS
  66
1
  70
0
  40
0.008
  41
0.008
  0
VERTEX
  8
Top_Silk
  10
1.2059
  20
0.4148
  42
0
  0
VERTEX
  8
Top_Silk
  10
1.2309
  20
0.4398
  42
0
  0
SEQEND
  0
POLYLINE
  8
Top_Silk
  6
CONTINUOUS
  66
1
  70
0
  40
0.008
  41
0.008
  0
VERTEX
  8
Top_Silk
  10
1.2809
  20
0.4398
  42
0
  0
VERTEX
  8
Top_Silk
  10
1.3059
  20
0.4148
  42
0
  0
SEQEND
  0
POLYLINE
  8
Top_Silk
  6
CONTINUOUS
  66
1
  70
0
  40
0.008
  41
0.008
  0
VERTEX
  8
Top_Silk
  10
1.2309
  20
0.4398
  42
0
  0
VERTEX
  8
Top_Silk
  10
1.2059
  20
0.4648
  42
0
  0
SEQEND
  0
POLYLINE
  8
Top_Silk
  6
CONTINUOUS
  66
1
  70
0
  40
0.008
  41
0.008
  0
VERTEX
  8
Top_Silk
  10
1.2059
  20
0.4648
  42
0
  0
VERTEX
  8
Top_Silk
  10
1.2059
  20
0.5148
  42
0
  0
SEQEND
  0
POLYLINE
  8
Top_Silk
  6
CONTINUOUS
  66
1
  70
0
  40
0.008
  41
0.008
  0
VERTEX
  8
Top_Silk
  10
1.2059
  20
0.5148
  42
0
  0
VERTEX
  8
Top_Silk
  10
1.2309
  20
0.5398
  42
0
  0
SEQEND
  0
POLYLINE
  8
Top_Silk
  6
CONTINUOUS
  66
1
  70
0
  40
0.008
  41
0.008
  0
VERTEX
  8
Top_Silk
  10
1.2809
  20
0.5398
  42
0
  0
VERTEX
  8
Top_Silk
  10
1.3059
  20
0.5148
  42
0
  0
SEQEND
  0
POLYLINE
  8
Top_Silk
  6
CONTINUOUS
  66
1
  70
0
  40
0.008
  41
0.008
  0
VERTEX
  8
Top_Silk
  10
1.3059
  20
0.5148
  42
0
  0
VERTEX
  8
Top_Silk
  10
1.3059
  20
0.4648
  42
0
  0
SEQEND
  0
POLYLINE
  8
Top_Silk
  6
CONTINUOUS
  66
1
  70
0
  40
0.008
  41
0.008
  0
VERTEX
  8
Top_Silk
  10
1.3059
  20
0.4648
  42
0
  0
VERTEX
  8
Top_Silk
  10
1.2809
  20
0.4398
  42
0
  0
SEQEND
  0
POLYLINE
  8
Top_Silk
  6
CONTINUOUS
  66
1
  70
0
  40
0.008
  41
0.008
  0
VERTEX
  8
Top_Silk
  10
1.2309
  20
0.3398
  42
0
  0
VERTEX
  8
Top_Silk
  10
1.2809
  20
0.3398
  42
0
  0
SEQEND
  0
POLYLINE
  8
Top_Silk
  6
CONTINUOUS
  66
1
  70
0
  40
0.008
  41
0.008
  0
VERTEX
  8
Top_Silk
  10
1.2059
  20
0.3648
  42
0
  0
VERTEX
  8
Top_Silk
  10
1.2309
  20
0.3398
  42
0
  0
SEQEND
  0
POLYLINE
  8
Top_Silk
  6
CONTINUOUS
  66
1
  70
0
  40
0.008
  41
0.008
  0
VERTEX
  8
Top_Silk
  10
1.2809
  20
0.3398
  42
0
  0
VERTEX
  8
Top_Silk
  10
1.3059
  20
0.3648
  42
0
  0
SEQEND
  0
POLYLINE
  8
Top_Silk
  6
CONTINUOUS
  66
1
  70
0
  40
0.008
  41
0.008
  0
VERTEX
  8
Top_Silk
  10
1.3059
  20
0.4148
  42
0
  0
VERTEX
  8
Top_Silk
  10
1.3059
  20
0.3648
  42
0
  0
SEQEND
  0
POLYLINE
  8
Top_Silk
  6
CONTINUOUS
  66
1
  70
0
  40
0.008
  41
0.008
  0
VERTEX
  8
Top_Silk
  10
1.2309
  20
0.6398
  42
0
  0
VERTEX
  8
Top_Silk
  10
1.2809
  20
0.6398
  42
0
  0
SEQEND
  0
POLYLINE
  8
Top_Silk
  6
CONTINUOUS
  66
1
  70
0
  40
0.0062
  41
0.0062
  0
VERTEX
  8
Top_Silk
  10
0.7051
  20
0.0994
  42
0
  0
VERTEX
  8
Top_Silk
  10
0.7204
  20
0.0592
  42
0
  0
VERTEX
  8
Top_Silk
  10
0.7357
  20
0.0994
  42
0
  0
SEQEND
  0
POLYLINE
  8
Top_Silk
  6
CONTINUOUS
  66
1
  70
0
  40
0.0031
  41
0.0031
  0
VERTEX
  8
Top_Silk
  10
0.7035
  20
0.0994
  42
1
  0
VERTEX
  8
Top_Silk
  10
0.7066
  20
0.0994
  42
1
  0
VERTEX
  8
Top_Silk
  10
0.7035
  20
0.0994
  42
1
  0
SEQEND
  0
POLYLINE
  8
Top_Silk
  6
CONTINUOUS
  66
1
  70
0
  40
0.0031
  41
0.0031
  0
VERTEX
  8
Top_Silk
  10
0.7341
  20
0.0994
  42
1
  0
VERTEX
  8
Top_Silk
  10
0.7372
  20
0.0994
  42
1
  0
VERTEX
  8
Top_Silk
  10
0.7341
  20
0.0994
  42
1
  0
SEQEND
  0
POLYLINE
  8
Top_Silk
  6
CONTINUOUS
  66
1
  70
0
  40
0.0062
  41
0.0062
  0
VERTEX
  8
Top_Silk
  10
0.748
  20
0.0917
  42
0
  0
VERTEX
  8
Top_Silk
  10
0.7519
  20
0.0936
  42
0
  0
VERTEX
  8
Top_Silk
  10
0.7576
  20
0.0993
  42
0
  0
VERTEX
  8
Top_Silk
  10
0.7576
  20
0.0592
  42
0
  0
SEQEND
  0
POLYLINE
  8
Top_Silk
  6
CONTINUOUS
  66
1
  70
0
  40
0.0031
  41
0.0031
  0
VERTEX
  8
Top_Silk
  10
0.7465
  20
0.0917
  42
1
  0
VERTEX
  8
Top_Silk
  10
0.7496
  20
0.0917
  42
1
  0
VERTEX
  8
Top_Silk
  10
0.7465
  20
0.0917
  42
1
  0
SEQEND
  0
POLYLINE
  8
Top_Silk
  6
CONTINUOUS
  66
1
  70
0
  40
0.0031
  41
0.0031
  0
VERTEX
  8
Top_Silk
  10
0.7561
  20
0.0592
  42
1
  0
VERTEX
  8
Top_Silk
  10
0.7592
  20
0.0592
  42
1
  0
VERTEX
  8
Top_Silk
  10
0.7561
  20
0.0592
  42
1
  0
SEQEND
  0
POLYLINE
  8
Top_Silk
  6
CONTINUOUS
  66
1
  70
0
  40
0.0062
  41
0.0062
  0
VERTEX
  8
Top_Silk
  10
0.7719
  20
0.063
  42
0
  0
VERTEX
  8
Top_Silk
  10
0.77
  20
0.0611
  42
0
  0
VERTEX
  8
Top_Silk
  10
0.7719
  20
0.0592
  42
0
  0
VERTEX
  8
Top_Silk
  10
0.7738
  20
0.0611
  42
0
  0
VERTEX
  8
Top_Silk
  10
0.7719
  20
0.063
  42
0
  0
SEQEND
  0
POLYLINE
  8
Top_Silk
  6
CONTINUOUS
  66
1
  70
0
  40
0.0031
  41
0.0031
  0
VERTEX
  8
Top_Silk
  10
0.7703
  20
0.063
  42
1
  0
VERTEX
  8
Top_Silk
  10
0.7734
  20
0.063
  42
1
  0
VERTEX
  8
Top_Silk
  10
0.7703
  20
0.063
  42
1
  0
SEQEND
  0
POLYLINE
  8
Top_Silk
  6
CONTINUOUS
  66
1
  70
0
  40
0.0062
  41
0.0062
  0
VERTEX
  8
Top_Silk
  10
0.7977
  20
0.0993
  42
0
  0
VERTEX
  8
Top_Silk
  10
0.7919
  20
0.0974
  42
0
  0
VERTEX
  8
Top_Silk
  10
0.7881
  20
0.0917
  42
0
  0
VERTEX
  8
Top_Silk
  10
0.7862
  20
0.0821
  42
0
  0
VERTEX
  8
Top_Silk
  10
0.7862
  20
0.0764
  42
0
  0
VERTEX
  8
Top_Silk
  10
0.7881
  20
0.0668
  42
0
  0
VERTEX
  8
Top_Silk
  10
0.7919
  20
0.0611
  42
0
  0
VERTEX
  8
Top_Silk
  10
0.7977
  20
0.0592
  42
0
  0
VERTEX
  8
Top_Silk
  10
0.8015
  20
0.0592
  42
0
  0
VERTEX
  8
Top_Silk
  10
0.8072
  20
0.0611
  42
0
  0
VERTEX
  8
Top_Silk
  10
0.811
  20
0.0668
  42
0
  0
VERTEX
  8
Top_Silk
  10
0.813
  20
0.0764
  42
0
  0
VERTEX
  8
Top_Silk
  10
0.813
  20
0.0821
  42
0
  0
VERTEX
  8
Top_Silk
  10
0.811
  20
0.0917
  42
0
  0
VERTEX
  8
Top_Silk
  10
0.8072
  20
0.0974
  42
0
  0
VERTEX
  8
Top_Silk
  10
0.8015
  20
0.0993
  42
0
  0
VERTEX
  8
Top_Silk
  10
0.7977
  20
0.0993
  42
0
  0
SEQEND
  0
POLYLINE
  8
Top_Silk
  6
CONTINUOUS
  66
1
  70
0
  40
0.0031
  41
0.0031
  0
VERTEX
  8
Top_Silk
  10
0.7961
  20
0.0993
  42
1
  0
VERTEX
  8
Top_Silk
  10
0.7992
  20
0.0993
  42
1
  0
VERTEX
  8
Top_Silk
  10
0.7961
  20
0.0993
  42
1
  0
SEQEND
  0
POLYLINE
  8
Top_Silk
  6
CONTINUOUS
  66
1
  70
0
  40
0.0062
  41
0.0062
  0
VERTEX
  8
Top_Silk
  10
0.811
  20
0.0917
  42
0
  0
VERTEX
  8
Top_Silk
  10
0.7881
  20
0.0668
  42
0
  0
SEQEND
  0
POLYLINE
  8
Top_Silk
  6
CONTINUOUS
  66
1
  70
0
  40
0.0031
  41
0.0031
  0
VERTEX
  8
Top_Silk
  10
0.8095
  20
0.0917
  42
1
  0
VERTEX
  8
Top_Silk
  10
0.8126
  20
0.0917
  42
1
  0
VERTEX
  8
Top_Silk
  10
0.8095
  20
0.0917
  42
1
  0
SEQEND
  0
POLYLINE
  8
Top_Silk
  6
CONTINUOUS
  66
1
  70
0
  40
0.0031
  41
0.0031
  0
VERTEX
  8
Top_Silk
  10
0.7865
  20
0.0668
  42
1
  0
VERTEX
  8
Top_Silk
  10
0.7896
  20
0.0668
  42
1
  0
VERTEX
  8
Top_Silk
  10
0.7865
  20
0.0668
  42
1
  0
SEQEND
  0
POLYLINE
  8
Top_Silk
  6
CONTINUOUS
  66
1
  70
0
  40
0.0046
  41
0.0046
  0
VERTEX
  8
Top_Silk
  10
1.0899
  20
0.6094
  42
0
  0
VERTEX
  8
Top_Silk
  10
1.087
  20
0.6079
  42
0
  0
VERTEX
  8
Top_Silk
  10
1.0841
  20
0.605
  42
0
  0
VERTEX
  8
Top_Silk
  10
1.0827
  20
0.6022
  42
0
  0
VERTEX
  8
Top_Silk
  10
1.0827
  20
0.5965
  42
0
  0
VERTEX
  8
Top_Silk
  10
1.0841
  20
0.5936
  42
0
  0
VERTEX
  8
Top_Silk
  10
1.087
  20
0.5907
  42
0
  0
VERTEX
  8
Top_Silk
  10
1.0899
  20
0.5893
  42
0
  0
VERTEX
  8
Top_Silk
  10
1.0942
  20
0.5878
  42
0
  0
VERTEX
  8
Top_Silk
  10
1.1014
  20
0.5878
  42
0
  0
VERTEX
  8
Top_Silk
  10
1.1057
  20
0.5893
  42
0
  0
VERTEX
  8
Top_Silk
  10
1.1086
  20
0.5907
  42
0
  0
VERTEX
  8
Top_Silk
  10
1.1114
  20
0.5936
  42
0
  0
VERTEX
  8
Top_Silk
  10
1.1129
  20
0.5965
  42
0
  0
VERTEX
  8
Top_Silk
  10
1.1129
  20
0.6022
  42
0
  0
VERTEX
  8
Top_Silk
  10
1.1114
  20
0.605
  42
0
  0
VERTEX
  8
Top_Silk
  10
1.1086
  20
0.6079
  42
0
  0
VERTEX
  8
Top_Silk
  10
1.1057
  20
0.6094
  42
0
  0
SEQEND
  0
POLYLINE
  8
Top_Silk
  6
CONTINUOUS
  66
1
  70
0
  40
0.0023
  41
0.0023
  0
VERTEX
  8
Top_Silk
  10
1.0887
  20
0.6094
  42
1
  0
VERTEX
  8
Top_Silk
  10
1.091
  20
0.6094
  42
1
  0
VERTEX
  8
Top_Silk
  10
1.0887
  20
0.6094
  42
1
  0
SEQEND
  0
POLYLINE
  8
Top_Silk
  6
CONTINUOUS
  66
1
  70
0
  40
0.0023
  41
0.0023
  0
VERTEX
  8
Top_Silk
  10
1.1045
  20
0.6094
  42
1
  0
VERTEX
  8
Top_Silk
  10
1.1068
  20
0.6094
  42
1
  0
VERTEX
  8
Top_Silk
  10
1.1045
  20
0.6094
  42
1
  0
SEQEND
  0
POLYLINE
  8
Top_Silk
  6
CONTINUOUS
  66
1
  70
0
  40
0.0046
  41
0.0046
  0
VERTEX
  8
Top_Silk
  10
1.0885
  20
0.6186
  42
0
  0
VERTEX
  8
Top_Silk
  10
1.087
  20
0.6215
  42
0
  0
VERTEX
  8
Top_Silk
  10
1.0828
  20
0.6258
  42
0
  0
VERTEX
  8
Top_Silk
  10
1.1129
  20
0.6258
  42
0
  0
SEQEND
  0
POLYLINE
  8
Top_Silk
  6
CONTINUOUS
  66
1
  70
0
  40
0.0023
  41
0.0023
  0
VERTEX
  8
Top_Silk
  10
1.0873
  20
0.6186
  42
1
  0
VERTEX
  8
Top_Silk
  10
1.0896
  20
0.6186
  42
1
  0
VERTEX
  8
Top_Silk
  10
1.0873
  20
0.6186
  42
1
  0
SEQEND
  0
POLYLINE
  8
Top_Silk
  6
CONTINUOUS
  66
1
  70
0
  40
0.0023
  41
0.0023
  0
VERTEX
  8
Top_Silk
  10
1.1117
  20
0.6258
  42
1
  0
VERTEX
  8
Top_Silk
  10
1.114
  20
0.6258
  42
1
  0
VERTEX
  8
Top_Silk
  10
1.1117
  20
0.6258
  42
1
  0
SEQEND
  0
POLYLINE
  8
Top_Silk
  6
CONTINUOUS
  66
1
  70
0
  40
0.0046
  41
0.0046
  0
VERTEX
  8
Top_Silk
  10
1.1178
  20
0.6351
  42
0
  0
VERTEX
  8
Top_Silk
  10
1.1178
  20
0.6623
  42
0
  0
SEQEND
  0
POLYLINE
  8
Top_Silk
  6
CONTINUOUS
  66
1
  70
0
  40
0.0023
  41
0.0023
  0
VERTEX
  8
Top_Silk
  10
1.1167
  20
0.6351
  42
1
  0
VERTEX
  8
Top_Silk
  10
1.119
  20
0.6351
  42
1
  0
VERTEX
  8
Top_Silk
  10
1.1167
  20
0.6351
  42
1
  0
SEQEND
  0
POLYLINE
  8
Top_Silk
  6
CONTINUOUS
  66
1
  70
0
  40
0.0023
  41
0.0023
  0
VERTEX
  8
Top_Silk
  10
1.1167
  20
0.6623
  42
1
  0
VERTEX
  8
Top_Silk
  10
1.119
  20
0.6623
  42
1
  0
VERTEX
  8
Top_Silk
  10
1.1167
  20
0.6623
  42
1
  0
SEQEND
  0
POLYLINE
  8
Top_Silk
  6
CONTINUOUS
  66
1
  70
0
  40
0.0046
  41
0.0046
  0
VERTEX
  8
Top_Silk
  10
1.0828
  20
0.6888
  42
0
  0
VERTEX
  8
Top_Silk
  10
1.0828
  20
0.6745
  42
0
  0
VERTEX
  8
Top_Silk
  10
1.0957
  20
0.6731
  42
0
  0
VERTEX
  8
Top_Silk
  10
1.0942
  20
0.6745
  42
0
  0
VERTEX
  8
Top_Silk
  10
1.0928
  20
0.6788
  42
0
  0
VERTEX
  8
Top_Silk
  10
1.0928
  20
0.6831
  42
0
  0
VERTEX
  8
Top_Silk
  10
1.0942
  20
0.6874
  42
0
  0
VERTEX
  8
Top_Silk
  10
1.0971
  20
0.6903
  42
0
  0
VERTEX
  8
Top_Silk
  10
1.1014
  20
0.6917
  42
0
  0
VERTEX
  8
Top_Silk
  10
1.1042
  20
0.6917
  42
0
  0
VERTEX
  8
Top_Silk
  10
1.1086
  20
0.6903
  42
0
  0
VERTEX
  8
Top_Silk
  10
1.1114
  20
0.6874
  42
0
  0
VERTEX
  8
Top_Silk
  10
1.1129
  20
0.6831
  42
0
  0
VERTEX
  8
Top_Silk
  10
1.1129
  20
0.6788
  42
0
  0
VERTEX
  8
Top_Silk
  10
1.1114
  20
0.6745
  42
0
  0
VERTEX
  8
Top_Silk
  10
1.11
  20
0.6731
  42
0
  0
VERTEX
  8
Top_Silk
  10
1.1071
  20
0.6716
  42
0
  0
SEQEND
  0
POLYLINE
  8
Top_Silk
  6
CONTINUOUS
  66
1
  70
0
  40
0.0023
  41
0.0023
  0
VERTEX
  8
Top_Silk
  10
1.0816
  20
0.6888
  42
1
  0
VERTEX
  8
Top_Silk
  10
1.0839
  20
0.6888
  42
1
  0
VERTEX
  8
Top_Silk
  10
1.0816
  20
0.6888
  42
1
  0
SEQEND
  0
POLYLINE
  8
Top_Silk
  6
CONTINUOUS
  66
1
  70
0
  40
0.0023
  41
0.0023
  0
VERTEX
  8
Top_Silk
  10
1.106
  20
0.6716
  42
1
  0
VERTEX
  8
Top_Silk
  10
1.1083
  20
0.6716
  42
1
  0
VERTEX
  8
Top_Silk
  10
1.106
  20
0.6716
  42
1
  0
SEQEND
  0
POLYLINE
  8
Top_Silk
  6
CONTINUOUS
  66
1
  70
0
  40
0.0046
  41
0.0046
  0
VERTEX
  8
Top_Silk
  10
0.8982
  20
0.8242
  42
0
  0
VERTEX
  8
Top_Silk
  10
0.8968
  20
0.827
  42
0
  0
VERTEX
  8
Top_Silk
  10
0.8939
  20
0.8299
  42
0
  0
VERTEX
  8
Top_Silk
  10
0.891
  20
0.8314
  42
0
  0
VERTEX
  8
Top_Silk
  10
0.8853
  20
0.8314
  42
0
  0
VERTEX
  8
Top_Silk
  10
0.8824
  20
0.8299
  42
0
  0
VERTEX
  8
Top_Silk
  10
0.8795
  20
0.827
  42
0
  0
VERTEX
  8
Top_Silk
  10
0.8781
  20
0.8242
  42
0
  0
VERTEX
  8
Top_Silk
  10
0.8767
  20
0.8199
  42
0
  0
VERTEX
  8
Top_Silk
  10
0.8767
  20
0.8127
  42
0
  0
VERTEX
  8
Top_Silk
  10
0.8781
  20
0.8084
  42
0
  0
VERTEX
  8
Top_Silk
  10
0.8795
  20
0.8055
  42
0
  0
VERTEX
  8
Top_Silk
  10
0.8824
  20
0.8027
  42
0
  0
VERTEX
  8
Top_Silk
  10
0.8853
  20
0.8012
  42
0
  0
VERTEX
  8
Top_Silk
  10
0.891
  20
0.8012
  42
0
  0
VERTEX
  8
Top_Silk
  10
0.8939
  20
0.8027
  42
0
  0
VERTEX
  8
Top_Silk
  10
0.8968
  20
0.8055
  42
0
  0
VERTEX
  8
Top_Silk
  10
0.8982
  20
0.8084
  42
0
  0
SEQEND
  0
POLYLINE
  8
Top_Silk
  6
CONTINUOUS
  66
1
  70
0
  40
0.0023
  41
0.0023
  0
VERTEX
  8
Top_Silk
  10
0.897
  20
0.8242
  42
1
  0
VERTEX
  8
Top_Silk
  10
0.8993
  20
0.8242
  42
1
  0
VERTEX
  8
Top_Silk
  10
0.897
  20
0.8242
  42
1
  0
SEQEND
  0
POLYLINE
  8
Top_Silk
  6
CONTINUOUS
  66
1
  70
0
  40
0.0023
  41
0.0023
  0
VERTEX
  8
Top_Silk
  10
0.897
  20
0.8084
  42
1
  0
VERTEX
  8
Top_Silk
  10
0.8993
  20
0.8084
  42
1
  0
VERTEX
  8
Top_Silk
  10
0.897
  20
0.8084
  42
1
  0
SEQEND
  0
POLYLINE
  8
Top_Silk
  6
CONTINUOUS
  66
1
  70
0
  40
0.0046
  41
0.0046
  0
VERTEX
  8
Top_Silk
  10
0.9089
  20
0.8242
  42
0
  0
VERTEX
  8
Top_Silk
  10
0.9089
  20
0.8256
  42
0
  0
VERTEX
  8
Top_Silk
  10
0.9103
  20
0.8285
  42
0
  0
VERTEX
  8
Top_Silk
  10
0.9118
  20
0.8299
  42
0
  0
VERTEX
  8
Top_Silk
  10
0.9146
  20
0.8313
  42
0
  0
VERTEX
  8
Top_Silk
  10
0.9204
  20
0.8313
  42
0
  0
VERTEX
  8
Top_Silk
  10
0.9232
  20
0.8299
  42
0
  0
VERTEX
  8
Top_Silk
  10
0.9247
  20
0.8285
  42
0
  0
VERTEX
  8
Top_Silk
  10
0.9261
  20
0.8256
  42
0
  0
VERTEX
  8
Top_Silk
  10
0.9261
  20
0.8227
  42
0
  0
VERTEX
  8
Top_Silk
  10
0.9247
  20
0.8199
  42
0
  0
VERTEX
  8
Top_Silk
  10
0.9218
  20
0.8156
  42
0
  0
VERTEX
  8
Top_Silk
  10
0.9074
  20
0.8012
  42
0
  0
VERTEX
  8
Top_Silk
  10
0.9275
  20
0.8012
  42
0
  0
SEQEND
  0
POLYLINE
  8
Top_Silk
  6
CONTINUOUS
  66
1
  70
0
  40
0.0023
  41
0.0023
  0
VERTEX
  8
Top_Silk
  10
0.9077
  20
0.8242
  42
1
  0
VERTEX
  8
Top_Silk
  10
0.9101
  20
0.8242
  42
1
  0
VERTEX
  8
Top_Silk
  10
0.9077
  20
0.8242
  42
1
  0
SEQEND
  0
POLYLINE
  8
Top_Silk
  6
CONTINUOUS
  66
1
  70
0
  40
0.0023
  41
0.0023
  0
VERTEX
  8
Top_Silk
  10
0.9264
  20
0.8012
  42
1
  0
VERTEX
  8
Top_Silk
  10
0.9287
  20
0.8012
  42
1
  0
VERTEX
  8
Top_Silk
  10
0.9264
  20
0.8012
  42
1
  0
SEQEND
  0
POLYLINE
  8
Top_Silk
  6
CONTINUOUS
  66
1
  70
0
  40
0.0046
  41
0.0046
  0
VERTEX
  8
Top_Silk
  10
0.9368
  20
0.7962
  42
0
  0
VERTEX
  8
Top_Silk
  10
0.9641
  20
0.7962
  42
0
  0
SEQEND
  0
POLYLINE
  8
Top_Silk
  6
CONTINUOUS
  66
1
  70
0
  40
0.0023
  41
0.0023
  0
VERTEX
  8
Top_Silk
  10
0.9356
  20
0.7962
  42
1
  0
VERTEX
  8
Top_Silk
  10
0.938
  20
0.7962
  42
1
  0
VERTEX
  8
Top_Silk
  10
0.9356
  20
0.7962
  42
1
  0
SEQEND
  0
POLYLINE
  8
Top_Silk
  6
CONTINUOUS
  66
1
  70
0
  40
0.0023
  41
0.0023
  0
VERTEX
  8
Top_Silk
  10
0.9629
  20
0.7962
  42
1
  0
VERTEX
  8
Top_Silk
  10
0.9652
  20
0.7962
  42
1
  0
VERTEX
  8
Top_Silk
  10
0.9629
  20
0.7962
  42
1
  0
SEQEND
  0
POLYLINE
  8
Top_Silk
  6
CONTINUOUS
  66
1
  70
0
  40
0.0046
  41
0.0046
  0
VERTEX
  8
Top_Silk
  10
0.9905
  20
0.8313
  42
0
  0
VERTEX
  8
Top_Silk
  10
0.9762
  20
0.8313
  42
0
  0
VERTEX
  8
Top_Silk
  10
0.9748
  20
0.8184
  42
0
  0
VERTEX
  8
Top_Silk
  10
0.9762
  20
0.8199
  42
0
  0
VERTEX
  8
Top_Silk
  10
0.9805
  20
0.8213
  42
0
  0
VERTEX
  8
Top_Silk
  10
0.9848
  20
0.8213
  42
0
  0
VERTEX
  8
Top_Silk
  10
0.9891
  20
0.8199
  42
0
  0
VERTEX
  8
Top_Silk
  10
0.992
  20
0.817
  42
0
  0
VERTEX
  8
Top_Silk
  10
0.9934
  20
0.8127
  42
0
  0
VERTEX
  8
Top_Silk
  10
0.9934
  20
0.8098
  42
0
  0
VERTEX
  8
Top_Silk
  10
0.992
  20
0.8055
  42
0
  0
VERTEX
  8
Top_Silk
  10
0.9891
  20
0.8026
  42
0
  0
VERTEX
  8
Top_Silk
  10
0.9848
  20
0.8012
  42
0
  0
VERTEX
  8
Top_Silk
  10
0.9805
  20
0.8012
  42
0
  0
VERTEX
  8
Top_Silk
  10
0.9762
  20
0.8026
  42
0
  0
VERTEX
  8
Top_Silk
  10
0.9748
  20
0.8041
  42
0
  0
VERTEX
  8
Top_Silk
  10
0.9733
  20
0.807
  42
0
  0
SEQEND
  0
POLYLINE
  8
Top_Silk
  6
CONTINUOUS
  66
1
  70
0
  40
0.0023
  41
0.0023
  0
VERTEX
  8
Top_Silk
  10
0.9894
  20
0.8313
  42
1
  0
VERTEX
  8
Top_Silk
  10
0.9917
  20
0.8313
  42
1
  0
VERTEX
  8
Top_Silk
  10
0.9894
  20
0.8313
  42
1
  0
SEQEND
  0
POLYLINE
  8
Top_Silk
  6
CONTINUOUS
  66
1
  70
0
  40
0.0023
  41
0.0023
  0
VERTEX
  8
Top_Silk
  10
0.9722
  20
0.807
  42
1
  0
VERTEX
  8
Top_Silk
  10
0.9745
  20
0.807
  42
1
  0
VERTEX
  8
Top_Silk
  10
0.9722
  20
0.807
  42
1
  0
SEQEND
  0
POLYLINE
  8
Top_Silk
  6
CONTINUOUS
  66
1
  70
0
  40
0.0046
  41
0.0046
  0
VERTEX
  8
Top_Silk
  10
0.9179
  20
0.2966
  42
0
  0
VERTEX
  8
Top_Silk
  10
0.9164
  20
0.2995
  42
0
  0
VERTEX
  8
Top_Silk
  10
0.9136
  20
0.3024
  42
0
  0
VERTEX
  8
Top_Silk
  10
0.9107
  20
0.3038
  42
0
  0
VERTEX
  8
Top_Silk
  10
0.905
  20
0.3038
  42
0
  0
VERTEX
  8
Top_Silk
  10
0.9021
  20
0.3024
  42
0
  0
VERTEX
  8
Top_Silk
  10
0.8992
  20
0.2995
  42
0
  0
VERTEX
  8
Top_Silk
  10
0.8978
  20
0.2966
  42
0
  0
VERTEX
  8
Top_Silk
  10
0.8963
  20
0.2923
  42
0
  0
VERTEX
  8
Top_Silk
  10
0.8963
  20
0.2851
  42
0
  0
VERTEX
  8
Top_Silk
  10
0.8978
  20
0.2809
  42
0
  0
VERTEX
  8
Top_Silk
  10
0.8992
  20
0.278
  42
0
  0
VERTEX
  8
Top_Silk
  10
0.9021
  20
0.2751
  42
0
  0
VERTEX
  8
Top_Silk
  10
0.905
  20
0.2737
  42
0
  0
VERTEX
  8
Top_Silk
  10
0.9107
  20
0.2737
  42
0
  0
VERTEX
  8
Top_Silk
  10
0.9136
  20
0.2751
  42
0
  0
VERTEX
  8
Top_Silk
  10
0.9164
  20
0.278
  42
0
  0
VERTEX
  8
Top_Silk
  10
0.9179
  20
0.2809
  42
0
  0
SEQEND
  0
POLYLINE
  8
Top_Silk
  6
CONTINUOUS
  66
1
  70
0
  40
0.0023
  41
0.0023
  0
VERTEX
  8
Top_Silk
  10
0.9167
  20
0.2966
  42
1
  0
VERTEX
  8
Top_Silk
  10
0.919
  20
0.2966
  42
1
  0
VERTEX
  8
Top_Silk
  10
0.9167
  20
0.2966
  42
1
  0
SEQEND
  0
POLYLINE
  8
Top_Silk
  6
CONTINUOUS
  66
1
  70
0
  40
0.0023
  41
0.0023
  0
VERTEX
  8
Top_Silk
  10
0.9167
  20
0.2809
  42
1
  0
VERTEX
  8
Top_Silk
  10
0.919
  20
0.2809
  42
1
  0
VERTEX
  8
Top_Silk
  10
0.9167
  20
0.2809
  42
1
  0
SEQEND
  0
POLYLINE
  8
Top_Silk
  6
CONTINUOUS
  66
1
  70
0
  40
0.0046
  41
0.0046
  0
VERTEX
  8
Top_Silk
  10
0.93
  20
0.3038
  42
0
  0
VERTEX
  8
Top_Silk
  10
0.9458
  20
0.3038
  42
0
  0
VERTEX
  8
Top_Silk
  10
0.9372
  20
0.2923
  42
0
  0
VERTEX
  8
Top_Silk
  10
0.9415
  20
0.2923
  42
0
  0
VERTEX
  8
Top_Silk
  10
0.9443
  20
0.2909
  42
0
  0
VERTEX
  8
Top_Silk
  10
0.9458
  20
0.2894
  42
0
  0
VERTEX
  8
Top_Silk
  10
0.9472
  20
0.2851
  42
0
  0
VERTEX
  8
Top_Silk
  10
0.9472
  20
0.2823
  42
0
  0
VERTEX
  8
Top_Silk
  10
0.9458
  20
0.278
  42
0
  0
VERTEX
  8
Top_Silk
  10
0.9429
  20
0.2751
  42
0
  0
VERTEX
  8
Top_Silk
  10
0.9386
  20
0.2737
  42
0
  0
VERTEX
  8
Top_Silk
  10
0.9343
  20
0.2737
  42
0
  0
VERTEX
  8
Top_Silk
  10
0.93
  20
0.2751
  42
0
  0
VERTEX
  8
Top_Silk
  10
0.9286
  20
0.2765
  42
0
  0
VERTEX
  8
Top_Silk
  10
0.9271
  20
0.2794
  42
0
  0
SEQEND
  0
POLYLINE
  8
Top_Silk
  6
CONTINUOUS
  66
1
  70
0
  40
0.0023
  41
0.0023
  0
VERTEX
  8
Top_Silk
  10
0.9289
  20
0.3038
  42
1
  0
VERTEX
  8
Top_Silk
  10
0.9312
  20
0.3038
  42
1
  0
VERTEX
  8
Top_Silk
  10
0.9289
  20
0.3038
  42
1
  0
SEQEND
  0
POLYLINE
  8
Top_Silk
  6
CONTINUOUS
  66
1
  70
0
  40
0.0023
  41
0.0023
  0
VERTEX
  8
Top_Silk
  10
0.926
  20
0.2794
  42
1
  0
VERTEX
  8
Top_Silk
  10
0.9283
  20
0.2794
  42
1
  0
VERTEX
  8
Top_Silk
  10
0.926
  20
0.2794
  42
1
  0
SEQEND
  0
POLYLINE
  8
Top_Silk
  6
CONTINUOUS
  66
1
  70
0
  40
0.0046
  41
0.0046
  0
VERTEX
  8
Top_Silk
  10
0.9565
  20
0.2687
  42
0
  0
VERTEX
  8
Top_Silk
  10
0.9837
  20
0.2687
  42
0
  0
SEQEND
  0
POLYLINE
  8
Top_Silk
  6
CONTINUOUS
  66
1
  70
0
  40
0.0023
  41
0.0023
  0
VERTEX
  8
Top_Silk
  10
0.9553
  20
0.2687
  42
1
  0
VERTEX
  8
Top_Silk
  10
0.9576
  20
0.2687
  42
1
  0
VERTEX
  8
Top_Silk
  10
0.9553
  20
0.2687
  42
1
  0
SEQEND
  0
POLYLINE
  8
Top_Silk
  6
CONTINUOUS
  66
1
  70
0
  40
0.0023
  41
0.0023
  0
VERTEX
  8
Top_Silk
  10
0.9826
  20
0.2687
  42
1
  0
VERTEX
  8
Top_Silk
  10
0.9849
  20
0.2687
  42
1
  0
VERTEX
  8
Top_Silk
  10
0.9826
  20
0.2687
  42
1
  0
SEQEND
  0
POLYLINE
  8
Top_Silk
  6
CONTINUOUS
  66
1
  70
0
  40
0.0046
  41
0.0046
  0
VERTEX
  8
Top_Silk
  10
1.0102
  20
0.3038
  42
0
  0
VERTEX
  8
Top_Silk
  10
0.9959
  20
0.3038
  42
0
  0
VERTEX
  8
Top_Silk
  10
0.9945
  20
0.2909
  42
0
  0
VERTEX
  8
Top_Silk
  10
0.9959
  20
0.2923
  42
0
  0
VERTEX
  8
Top_Silk
  10
1.0002
  20
0.2938
  42
0
  0
VERTEX
  8
Top_Silk
  10
1.0045
  20
0.2938
  42
0
  0
VERTEX
  8
Top_Silk
  10
1.0088
  20
0.2923
  42
0
  0
VERTEX
  8
Top_Silk
  10
1.0117
  20
0.2894
  42
0
  0
VERTEX
  8
Top_Silk
  10
1.0131
  20
0.2851
  42
0
  0
VERTEX
  8
Top_Silk
  10
1.0131
  20
0.2823
  42
0
  0
VERTEX
  8
Top_Silk
  10
1.0117
  20
0.278
  42
0
  0
VERTEX
  8
Top_Silk
  10
1.0088
  20
0.2751
  42
0
  0
VERTEX
  8
Top_Silk
  10
1.0045
  20
0.2737
  42
0
  0
VERTEX
  8
Top_Silk
  10
1.0002
  20
0.2737
  42
0
  0
VERTEX
  8
Top_Silk
  10
0.9959
  20
0.2751
  42
0
  0
VERTEX
  8
Top_Silk
  10
0.9945
  20
0.2765
  42
0
  0
VERTEX
  8
Top_Silk
  10
0.993
  20
0.2794
  42
0
  0
SEQEND
  0
POLYLINE
  8
Top_Silk
  6
CONTINUOUS
  66
1
  70
0
  40
0.0023
  41
0.0023
  0
VERTEX
  8
Top_Silk
  10
1.0091
  20
0.3038
  42
1
  0
VERTEX
  8
Top_Silk
  10
1.0114
  20
0.3038
  42
1
  0
VERTEX
  8
Top_Silk
  10
1.0091
  20
0.3038
  42
1
  0
SEQEND
  0
POLYLINE
  8
Top_Silk
  6
CONTINUOUS
  66
1
  70
0
  40
0.0023
  41
0.0023
  0
VERTEX
  8
Top_Silk
  10
0.9919
  20
0.2794
  42
1
  0
VERTEX
  8
Top_Silk
  10
0.9942
  20
0.2794
  42
1
  0
VERTEX
  8
Top_Silk
  10
0.9919
  20
0.2794
  42
1
  0
SEQEND
  0
POLYLINE
  8
Top_Silk
  6
CONTINUOUS
  66
1
  70
0
  40
0.0046
  41
0.0046
  0
VERTEX
  8
Top_Silk
  10
0.4447
  20
0.7218
  42
0
  0
VERTEX
  8
Top_Silk
  10
0.4433
  20
0.7247
  42
0
  0
VERTEX
  8
Top_Silk
  10
0.4404
  20
0.7276
  42
0
  0
VERTEX
  8
Top_Silk
  10
0.4375
  20
0.729
  42
0
  0
VERTEX
  8
Top_Silk
  10
0.4318
  20
0.729
  42
0
  0
VERTEX
  8
Top_Silk
  10
0.4289
  20
0.7276
  42
0
  0
VERTEX
  8
Top_Silk
  10
0.4261
  20
0.7247
  42
0
  0
VERTEX
  8
Top_Silk
  10
0.4246
  20
0.7218
  42
0
  0
VERTEX
  8
Top_Silk
  10
0.4232
  20
0.7175
  42
0
  0
VERTEX
  8
Top_Silk
  10
0.4232
  20
0.7103
  42
0
  0
VERTEX
  8
Top_Silk
  10
0.4246
  20
0.7061
  42
0
  0
VERTEX
  8
Top_Silk
  10
0.4261
  20
0.7032
  42
0
  0
VERTEX
  8
Top_Silk
  10
0.4289
  20
0.7003
  42
0
  0
VERTEX
  8
Top_Silk
  10
0.4318
  20
0.6989
  42
0
  0
VERTEX
  8
Top_Silk
  10
0.4375
  20
0.6989
  42
0
  0
VERTEX
  8
Top_Silk
  10
0.4404
  20
0.7003
  42
0
  0
VERTEX
  8
Top_Silk
  10
0.4433
  20
0.7032
  42
0
  0
VERTEX
  8
Top_Silk
  10
0.4447
  20
0.7061
  42
0
  0
SEQEND
  0
POLYLINE
  8
Top_Silk
  6
CONTINUOUS
  66
1
  70
0
  40
0.0023
  41
0.0023
  0
VERTEX
  8
Top_Silk
  10
0.4436
  20
0.7218
  42
1
  0
VERTEX
  8
Top_Silk
  10
0.4459
  20
0.7218
  42
1
  0
VERTEX
  8
Top_Silk
  10
0.4436
  20
0.7218
  42
1
  0
SEQEND
  0
POLYLINE
  8
Top_Silk
  6
CONTINUOUS
  66
1
  70
0
  40
0.0023
  41
0.0023
  0
VERTEX
  8
Top_Silk
  10
0.4436
  20
0.7061
  42
1
  0
VERTEX
  8
Top_Silk
  10
0.4459
  20
0.7061
  42
1
  0
VERTEX
  8
Top_Silk
  10
0.4436
  20
0.7061
  42
1
  0
SEQEND
  0
POLYLINE
  8
Top_Silk
  6
CONTINUOUS
  66
1
  70
0
  40
0.0046
  41
0.0046
  0
VERTEX
  8
Top_Silk
  10
0.4683
  20
0.6989
  42
0
  0
VERTEX
  8
Top_Silk
  10
0.4683
  20
0.729
  42
0
  0
VERTEX
  8
Top_Silk
  10
0.454
  20
0.7089
  42
0
  0
VERTEX
  8
Top_Silk
  10
0.4755
  20
0.7089
  42
0
  0
SEQEND
  0
POLYLINE
  8
Top_Silk
  6
CONTINUOUS
  66
1
  70
0
  40
0.0023
  41
0.0023
  0
VERTEX
  8
Top_Silk
  10
0.4672
  20
0.6989
  42
1
  0
VERTEX
  8
Top_Silk
  10
0.4695
  20
0.6989
  42
1
  0
VERTEX
  8
Top_Silk
  10
0.4672
  20
0.6989
  42
1
  0
SEQEND
  0
POLYLINE
  8
Top_Silk
  6
CONTINUOUS
  66
1
  70
0
  40
0.0023
  41
0.0023
  0
VERTEX
  8
Top_Silk
  10
0.4743
  20
0.7089
  42
1
  0
VERTEX
  8
Top_Silk
  10
0.4767
  20
0.7089
  42
1
  0
VERTEX
  8
Top_Silk
  10
0.4743
  20
0.7089
  42
1
  0
SEQEND
  0
POLYLINE
  8
Top_Silk
  6
CONTINUOUS
  66
1
  70
0
  40
0.0046
  41
0.0046
  0
VERTEX
  8
Top_Silk
  10
0.4848
  20
0.6939
  42
0
  0
VERTEX
  8
Top_Silk
  10
0.512
  20
0.6939
  42
0
  0
SEQEND
  0
POLYLINE
  8
Top_Silk
  6
CONTINUOUS
  66
1
  70
0
  40
0.0023
  41
0.0023
  0
VERTEX
  8
Top_Silk
  10
0.4836
  20
0.6939
  42
1
  0
VERTEX
  8
Top_Silk
  10
0.4859
  20
0.6939
  42
1
  0
VERTEX
  8
Top_Silk
  10
0.4836
  20
0.6939
  42
1
  0
SEQEND
  0
POLYLINE
  8
Top_Silk
  6
CONTINUOUS
  66
1
  70
0
  40
0.0023
  41
0.0023
  0
VERTEX
  8
Top_Silk
  10
0.5109
  20
0.6939
  42
1
  0
VERTEX
  8
Top_Silk
  10
0.5132
  20
0.6939
  42
1
  0
VERTEX
  8
Top_Silk
  10
0.5109
  20
0.6939
  42
1
  0
SEQEND
  0
POLYLINE
  8
Top_Silk
  6
CONTINUOUS
  66
1
  70
0
  40
0.0046
  41
0.0046
  0
VERTEX
  8
Top_Silk
  10
0.5385
  20
0.729
  42
0
  0
VERTEX
  8
Top_Silk
  10
0.5242
  20
0.729
  42
0
  0
VERTEX
  8
Top_Silk
  10
0.5227
  20
0.7161
  42
0
  0
VERTEX
  8
Top_Silk
  10
0.5242
  20
0.7175
  42
0
  0
VERTEX
  8
Top_Silk
  10
0.5285
  20
0.719
  42
0
  0
VERTEX
  8
Top_Silk
  10
0.5328
  20
0.719
  42
0
  0
VERTEX
  8
Top_Silk
  10
0.5371
  20
0.7175
  42
0
  0
VERTEX
  8
Top_Silk
  10
0.54
  20
0.7146
  42
0
  0
VERTEX
  8
Top_Silk
  10
0.5414
  20
0.7103
  42
0
  0
VERTEX
  8
Top_Silk
  10
0.5414
  20
0.7075
  42
0
  0
VERTEX
  8
Top_Silk
  10
0.54
  20
0.7032
  42
0
  0
VERTEX
  8
Top_Silk
  10
0.5371
  20
0.7003
  42
0
  0
VERTEX
  8
Top_Silk
  10
0.5328
  20
0.6989
  42
0
  0
VERTEX
  8
Top_Silk
  10
0.5285
  20
0.6989
  42
0
  0
VERTEX
  8
Top_Silk
  10
0.5242
  20
0.7003
  42
0
  0
VERTEX
  8
Top_Silk
  10
0.5227
  20
0.7017
  42
0
  0
VERTEX
  8
Top_Silk
  10
0.5213
  20
0.7046
  42
0
  0
SEQEND
  0
POLYLINE
  8
Top_Silk
  6
CONTINUOUS
  66
1
  70
0
  40
0.0023
  41
0.0023
  0
VERTEX
  8
Top_Silk
  10
0.5373
  20
0.729
  42
1
  0
VERTEX
  8
Top_Silk
  10
0.5397
  20
0.729
  42
1
  0
VERTEX
  8
Top_Silk
  10
0.5373
  20
0.729
  42
1
  0
SEQEND
  0
POLYLINE
  8
Top_Silk
  6
CONTINUOUS
  66
1
  70
0
  40
0.0023
  41
0.0023
  0
VERTEX
  8
Top_Silk
  10
0.5201
  20
0.7046
  42
1
  0
VERTEX
  8
Top_Silk
  10
0.5224
  20
0.7046
  42
1
  0
VERTEX
  8
Top_Silk
  10
0.5201
  20
0.7046
  42
1
  0
SEQEND
  0
POLYLINE
  8
Top_Silk
  6
CONTINUOUS
  66
1
  70
0
  40
0.0046
  41
0.0046
  0
VERTEX
  8
Top_Silk
  10
0.4494
  20
0.3714
  42
0
  0
VERTEX
  8
Top_Silk
  10
0.4479
  20
0.3743
  42
0
  0
VERTEX
  8
Top_Silk
  10
0.445
  20
0.3772
  42
0
  0
VERTEX
  8
Top_Silk
  10
0.4422
  20
0.3786
  42
0
  0
VERTEX
  8
Top_Silk
  10
0.4365
  20
0.3786
  42
0
  0
VERTEX
  8
Top_Silk
  10
0.4336
  20
0.3772
  42
0
  0
VERTEX
  8
Top_Silk
  10
0.4307
  20
0.3743
  42
0
  0
VERTEX
  8
Top_Silk
  10
0.4293
  20
0.3714
  42
0
  0
VERTEX
  8
Top_Silk
  10
0.4278
  20
0.3671
  42
0
  0
VERTEX
  8
Top_Silk
  10
0.4278
  20
0.3599
  42
0
  0
VERTEX
  8
Top_Silk
  10
0.4293
  20
0.3557
  42
0
  0
VERTEX
  8
Top_Silk
  10
0.4307
  20
0.3528
  42
0
  0
VERTEX
  8
Top_Silk
  10
0.4336
  20
0.3499
  42
0
  0
VERTEX
  8
Top_Silk
  10
0.4365
  20
0.3485
  42
0
  0
VERTEX
  8
Top_Silk
  10
0.4422
  20
0.3485
  42
0
  0
VERTEX
  8
Top_Silk
  10
0.445
  20
0.3499
  42
0
  0
VERTEX
  8
Top_Silk
  10
0.4479
  20
0.3528
  42
0
  0
VERTEX
  8
Top_Silk
  10
0.4494
  20
0.3557
  42
0
  0
SEQEND
  0
POLYLINE
  8
Top_Silk
  6
CONTINUOUS
  66
1
  70
0
  40
0.0023
  41
0.0023
  0
VERTEX
  8
Top_Silk
  10
0.4482
  20
0.3714
  42
1
  0
VERTEX
  8
Top_Silk
  10
0.4505
  20
0.3714
  42
1
  0
VERTEX
  8
Top_Silk
  10
0.4482
  20
0.3714
  42
1
  0
SEQEND
  0
POLYLINE
  8
Top_Silk
  6
CONTINUOUS
  66
1
  70
0
  40
0.0023
  41
0.0023
  0
VERTEX
  8
Top_Silk
  10
0.4482
  20
0.3557
  42
1
  0
VERTEX
  8
Top_Silk
  10
0.4505
  20
0.3557
  42
1
  0
VERTEX
  8
Top_Silk
  10
0.4482
  20
0.3557
  42
1
  0
SEQEND
  0
POLYLINE
  8
Top_Silk
  6
CONTINUOUS
  66
1
  70
0
  40
0.0046
  41
0.0046
  0
VERTEX
  8
Top_Silk
  10
0.4758
  20
0.3786
  42
0
  0
VERTEX
  8
Top_Silk
  10
0.4615
  20
0.3786
  42
0
  0
VERTEX
  8
Top_Silk
  10
0.4601
  20
0.3657
  42
0
  0
VERTEX
  8
Top_Silk
  10
0.4615
  20
0.3671
  42
0
  0
VERTEX
  8
Top_Silk
  10
0.4658
  20
0.3686
  42
0
  0
VERTEX
  8
Top_Silk
  10
0.4701
  20
0.3686
  42
0
  0
VERTEX
  8
Top_Silk
  10
0.4744
  20
0.3671
  42
0
  0
VERTEX
  8
Top_Silk
  10
0.4773
  20
0.3642
  42
0
  0
VERTEX
  8
Top_Silk
  10
0.4787
  20
0.3599
  42
0
  0
VERTEX
  8
Top_Silk
  10
0.4787
  20
0.3571
  42
0
  0
VERTEX
  8
Top_Silk
  10
0.4773
  20
0.3528
  42
0
  0
VERTEX
  8
Top_Silk
  10
0.4744
  20
0.3499
  42
0
  0
VERTEX
  8
Top_Silk
  10
0.4701
  20
0.3485
  42
0
  0
VERTEX
  8
Top_Silk
  10
0.4658
  20
0.3485
  42
0
  0
VERTEX
  8
Top_Silk
  10
0.4615
  20
0.3499
  42
0
  0
VERTEX
  8
Top_Silk
  10
0.4601
  20
0.3513
  42
0
  0
VERTEX
  8
Top_Silk
  10
0.4586
  20
0.3542
  42
0
  0
SEQEND
  0
POLYLINE
  8
Top_Silk
  6
CONTINUOUS
  66
1
  70
0
  40
0.0023
  41
0.0023
  0
VERTEX
  8
Top_Silk
  10
0.4747
  20
0.3786
  42
1
  0
VERTEX
  8
Top_Silk
  10
0.477
  20
0.3786
  42
1
  0
VERTEX
  8
Top_Silk
  10
0.4747
  20
0.3786
  42
1
  0
SEQEND
  0
POLYLINE
  8
Top_Silk
  6
CONTINUOUS
  66
1
  70
0
  40
0.0023
  41
0.0023
  0
VERTEX
  8
Top_Silk
  10
0.4575
  20
0.3542
  42
1
  0
VERTEX
  8
Top_Silk
  10
0.4598
  20
0.3542
  42
1
  0
VERTEX
  8
Top_Silk
  10
0.4575
  20
0.3542
  42
1
  0
SEQEND
  0
POLYLINE
  8
Top_Silk
  6
CONTINUOUS
  66
1
  70
0
  40
0.0046
  41
0.0046
  0
VERTEX
  8
Top_Silk
  10
0.488
  20
0.3435
  42
0
  0
VERTEX
  8
Top_Silk
  10
0.5152
  20
0.3435
  42
0
  0
SEQEND
  0
POLYLINE
  8
Top_Silk
  6
CONTINUOUS
  66
1
  70
0
  40
0.0023
  41
0.0023
  0
VERTEX
  8
Top_Silk
  10
0.4868
  20
0.3435
  42
1
  0
VERTEX
  8
Top_Silk
  10
0.4891
  20
0.3435
  42
1
  0
VERTEX
  8
Top_Silk
  10
0.4868
  20
0.3435
  42
1
  0
SEQEND
  0
POLYLINE
  8
Top_Silk
  6
CONTINUOUS
  66
1
  70
0
  40
0.0023
  41
0.0023
  0
VERTEX
  8
Top_Silk
  10
0.5141
  20
0.3435
  42
1
  0
VERTEX
  8
Top_Silk
  10
0.5164
  20
0.3435
  42
1
  0
VERTEX
  8
Top_Silk
  10
0.5141
  20
0.3435
  42
1
  0
SEQEND
  0
POLYLINE
  8
Top_Silk
  6
CONTINUOUS
  66
1
  70
0
  40
0.0046
  41
0.0046
  0
VERTEX
  8
Top_Silk
  10
0.5417
  20
0.3786
  42
0
  0
VERTEX
  8
Top_Silk
  10
0.5274
  20
0.3786
  42
0
  0
VERTEX
  8
Top_Silk
  10
0.526
  20
0.3657
  42
0
  0
VERTEX
  8
Top_Silk
  10
0.5274
  20
0.3671
  42
0
  0
VERTEX
  8
Top_Silk
  10
0.5317
  20
0.3686
  42
0
  0
VERTEX
  8
Top_Silk
  10
0.536
  20
0.3686
  42
0
  0
VERTEX
  8
Top_Silk
  10
0.5403
  20
0.3671
  42
0
  0
VERTEX
  8
Top_Silk
  10
0.5432
  20
0.3642
  42
0
  0
VERTEX
  8
Top_Silk
  10
0.5446
  20
0.3599
  42
0
  0
VERTEX
  8
Top_Silk
  10
0.5446
  20
0.3571
  42
0
  0
VERTEX
  8
Top_Silk
  10
0.5432
  20
0.3528
  42
0
  0
VERTEX
  8
Top_Silk
  10
0.5403
  20
0.3499
  42
0
  0
VERTEX
  8
Top_Silk
  10
0.536
  20
0.3485
  42
0
  0
VERTEX
  8
Top_Silk
  10
0.5317
  20
0.3485
  42
0
  0
VERTEX
  8
Top_Silk
  10
0.5274
  20
0.3499
  42
0
  0
VERTEX
  8
Top_Silk
  10
0.526
  20
0.3513
  42
0
  0
VERTEX
  8
Top_Silk
  10
0.5245
  20
0.3542
  42
0
  0
SEQEND
  0
POLYLINE
  8
Top_Silk
  6
CONTINUOUS
  66
1
  70
0
  40
0.0023
  41
0.0023
  0
VERTEX
  8
Top_Silk
  10
0.5406
  20
0.3786
  42
1
  0
VERTEX
  8
Top_Silk
  10
0.5429
  20
0.3786
  42
1
  0
VERTEX
  8
Top_Silk
  10
0.5406
  20
0.3786
  42
1
  0
SEQEND
  0
POLYLINE
  8
Top_Silk
  6
CONTINUOUS
  66
1
  70
0
  40
0.0023
  41
0.0023
  0
VERTEX
  8
Top_Silk
  10
0.5233
  20
0.3542
  42
1
  0
VERTEX
  8
Top_Silk
  10
0.5257
  20
0.3542
  42
1
  0
VERTEX
  8
Top_Silk
  10
0.5233
  20
0.3542
  42
1
  0
SEQEND
  0
POLYLINE
  8
Top_Silk
  6
CONTINUOUS
  66
1
  70
0
  40
0.0046
  41
0.0046
  0
VERTEX
  8
Top_Silk
  10
1.0301
  20
0.5885
  42
0
  0
VERTEX
  8
Top_Silk
  10
1.0301
  20
0.6014
  42
0
  0
VERTEX
  8
Top_Silk
  10
1.0287
  20
0.6058
  42
0
  0
VERTEX
  8
Top_Silk
  10
1.0273
  20
0.6072
  42
0
  0
VERTEX
  8
Top_Silk
  10
1.0244
  20
0.6086
  42
0
  0
VERTEX
  8
Top_Silk
  10
1.0215
  20
0.6086
  42
0
  0
VERTEX
  8
Top_Silk
  10
1.0187
  20
0.6072
  42
0
  0
VERTEX
  8
Top_Silk
  10
1.0172
  20
0.6058
  42
0
  0
VERTEX
  8
Top_Silk
  10
1.0158
  20
0.6014
  42
0
  0
VERTEX
  8
Top_Silk
  10
1.0158
  20
0.5885
  42
0
  0
VERTEX
  8
Top_Silk
  10
1.0459
  20
0.5885
  42
0
  0
SEQEND
  0
POLYLINE
  8
Top_Silk
  6
CONTINUOUS
  66
1
  70
0
  40
0.0023
  41
0.0023
  0
VERTEX
  8
Top_Silk
  10
1.029
  20
0.5885
  42
1
  0
VERTEX
  8
Top_Silk
  10
1.0313
  20
0.5885
  42
1
  0
VERTEX
  8
Top_Silk
  10
1.029
  20
0.5885
  42
1
  0
SEQEND
  0
POLYLINE
  8
Top_Silk
  6
CONTINUOUS
  66
1
  70
0
  40
0.0023
  41
0.0023
  0
VERTEX
  8
Top_Silk
  10
1.0448
  20
0.5885
  42
1
  0
VERTEX
  8
Top_Silk
  10
1.0471
  20
0.5885
  42
1
  0
VERTEX
  8
Top_Silk
  10
1.0448
  20
0.5885
  42
1
  0
SEQEND
  0
POLYLINE
  8
Top_Silk
  6
CONTINUOUS
  66
1
  70
0
  40
0.0046
  41
0.0046
  0
VERTEX
  8
Top_Silk
  10
1.0301
  20
0.5986
  42
0
  0
VERTEX
  8
Top_Silk
  10
1.0459
  20
0.6086
  42
0
  0
SEQEND
  0
POLYLINE
  8
Top_Silk
  6
CONTINUOUS
  66
1
  70
0
  40
0.0023
  41
0.0023
  0
VERTEX
  8
Top_Silk
  10
1.029
  20
0.5986
  42
1
  0
VERTEX
  8
Top_Silk
  10
1.0313
  20
0.5986
  42
1
  0
VERTEX
  8
Top_Silk
  10
1.029
  20
0.5986
  42
1
  0
SEQEND
  0
POLYLINE
  8
Top_Silk
  6
CONTINUOUS
  66
1
  70
0
  40
0.0023
  41
0.0023
  0
VERTEX
  8
Top_Silk
  10
1.0448
  20
0.6086
  42
1
  0
VERTEX
  8
Top_Silk
  10
1.0471
  20
0.6086
  42
1
  0
VERTEX
  8
Top_Silk
  10
1.0448
  20
0.6086
  42
1
  0
SEQEND
  0
POLYLINE
  8
Top_Silk
  6
CONTINUOUS
  66
1
  70
0
  40
0.0046
  41
0.0046
  0
VERTEX
  8
Top_Silk
  10
1.0216
  20
0.6179
  42
0
  0
VERTEX
  8
Top_Silk
  10
1.0201
  20
0.6208
  42
0
  0
VERTEX
  8
Top_Silk
  10
1.0158
  20
0.6251
  42
0
  0
VERTEX
  8
Top_Silk
  10
1.0459
  20
0.6251
  42
0
  0
SEQEND
  0
POLYLINE
  8
Top_Silk
  6
CONTINUOUS
  66
1
  70
0
  40
0.0023
  41
0.0023
  0
VERTEX
  8
Top_Silk
  10
1.0204
  20
0.6179
  42
1
  0
VERTEX
  8
Top_Silk
  10
1.0227
  20
0.6179
  42
1
  0
VERTEX
  8
Top_Silk
  10
1.0204
  20
0.6179
  42
1
  0
SEQEND
  0
POLYLINE
  8
Top_Silk
  6
CONTINUOUS
  66
1
  70
0
  40
0.0023
  41
0.0023
  0
VERTEX
  8
Top_Silk
  10
1.0448
  20
0.6251
  42
1
  0
VERTEX
  8
Top_Silk
  10
1.0471
  20
0.6251
  42
1
  0
VERTEX
  8
Top_Silk
  10
1.0448
  20
0.6251
  42
1
  0
SEQEND
  0
POLYLINE
  8
Top_Silk
  6
CONTINUOUS
  66
1
  70
0
  40
0.0046
  41
0.0046
  0
VERTEX
  8
Top_Silk
  10
1.0509
  20
0.6344
  42
0
  0
VERTEX
  8
Top_Silk
  10
1.0509
  20
0.6616
  42
0
  0
SEQEND
  0
POLYLINE
  8
Top_Silk
  6
CONTINUOUS
  66
1
  70
0
  40
0.0023
  41
0.0023
  0
VERTEX
  8
Top_Silk
  10
1.0498
  20
0.6344
  42
1
  0
VERTEX
  8
Top_Silk
  10
1.0521
  20
0.6344
  42
1
  0
VERTEX
  8
Top_Silk
  10
1.0498
  20
0.6344
  42
1
  0
SEQEND
  0
POLYLINE
  8
Top_Silk
  6
CONTINUOUS
  66
1
  70
0
  40
0.0023
  41
0.0023
  0
VERTEX
  8
Top_Silk
  10
1.0498
  20
0.6616
  42
1
  0
VERTEX
  8
Top_Silk
  10
1.0521
  20
0.6616
  42
1
  0
VERTEX
  8
Top_Silk
  10
1.0498
  20
0.6616
  42
1
  0
SEQEND
  0
POLYLINE
  8
Top_Silk
  6
CONTINUOUS
  66
1
  70
0
  40
0.0046
  41
0.0046
  0
VERTEX
  8
Top_Silk
  10
1.0158
  20
0.6881
  42
0
  0
VERTEX
  8
Top_Silk
  10
1.0158
  20
0.6738
  42
0
  0
VERTEX
  8
Top_Silk
  10
1.0287
  20
0.6723
  42
0
  0
VERTEX
  8
Top_Silk
  10
1.0273
  20
0.6738
  42
0
  0
VERTEX
  8
Top_Silk
  10
1.0258
  20
0.6781
  42
0
  0
VERTEX
  8
Top_Silk
  10
1.0258
  20
0.6824
  42
0
  0
VERTEX
  8
Top_Silk
  10
1.0273
  20
0.6867
  42
0
  0
VERTEX
  8
Top_Silk
  10
1.0301
  20
0.6896
  42
0
  0
VERTEX
  8
Top_Silk
  10
1.0345
  20
0.691
  42
0
  0
VERTEX
  8
Top_Silk
  10
1.0373
  20
0.691
  42
0
  0
VERTEX
  8
Top_Silk
  10
1.0416
  20
0.6896
  42
0
  0
VERTEX
  8
Top_Silk
  10
1.0445
  20
0.6867
  42
0
  0
VERTEX
  8
Top_Silk
  10
1.0459
  20
0.6824
  42
0
  0
VERTEX
  8
Top_Silk
  10
1.0459
  20
0.6781
  42
0
  0
VERTEX
  8
Top_Silk
  10
1.0445
  20
0.6738
  42
0
  0
VERTEX
  8
Top_Silk
  10
1.043
  20
0.6723
  42
0
  0
VERTEX
  8
Top_Silk
  10
1.0402
  20
0.6709
  42
0
  0
SEQEND
  0
POLYLINE
  8
Top_Silk
  6
CONTINUOUS
  66
1
  70
0
  40
0.0023
  41
0.0023
  0
VERTEX
  8
Top_Silk
  10
1.0147
  20
0.6881
  42
1
  0
VERTEX
  8
Top_Silk
  10
1.017
  20
0.6881
  42
1
  0
VERTEX
  8
Top_Silk
  10
1.0147
  20
0.6881
  42
1
  0
SEQEND
  0
POLYLINE
  8
Top_Silk
  6
CONTINUOUS
  66
1
  70
0
  40
0.0023
  41
0.0023
  0
VERTEX
  8
Top_Silk
  10
1.039
  20
0.6709
  42
1
  0
VERTEX
  8
Top_Silk
  10
1.0414
  20
0.6709
  42
1
  0
VERTEX
  8
Top_Silk
  10
1.039
  20
0.6709
  42
1
  0
SEQEND
  0
POLYLINE
  8
Top_Silk
  6
CONTINUOUS
  66
1
  70
0
  40
0.0046
  41
0.0046
  0
VERTEX
  8
Top_Silk
  10
0.6687
  20
0.5493
  42
0
  0
VERTEX
  8
Top_Silk
  10
0.6816
  20
0.5493
  42
0
  0
VERTEX
  8
Top_Silk
  10
0.6859
  20
0.5507
  42
0
  0
VERTEX
  8
Top_Silk
  10
0.6874
  20
0.5522
  42
0
  0
VERTEX
  8
Top_Silk
  10
0.6888
  20
0.555
  42
0
  0
VERTEX
  8
Top_Silk
  10
0.6888
  20
0.5579
  42
0
  0
VERTEX
  8
Top_Silk
  10
0.6874
  20
0.5608
  42
0
  0
VERTEX
  8
Top_Silk
  10
0.6859
  20
0.5622
  42
0
  0
VERTEX
  8
Top_Silk
  10
0.6816
  20
0.5636
  42
0
  0
VERTEX
  8
Top_Silk
  10
0.6687
  20
0.5636
  42
0
  0
VERTEX
  8
Top_Silk
  10
0.6687
  20
0.5335
  42
0
  0
SEQEND
  0
POLYLINE
  8
Top_Silk
  6
CONTINUOUS
  66
1
  70
0
  40
0.0023
  41
0.0023
  0
VERTEX
  8
Top_Silk
  10
0.6676
  20
0.5493
  42
1
  0
VERTEX
  8
Top_Silk
  10
0.6699
  20
0.5493
  42
1
  0
VERTEX
  8
Top_Silk
  10
0.6676
  20
0.5493
  42
1
  0
SEQEND
  0
POLYLINE
  8
Top_Silk
  6
CONTINUOUS
  66
1
  70
0
  40
0.0023
  41
0.0023
  0
VERTEX
  8
Top_Silk
  10
0.6676
  20
0.5335
  42
1
  0
VERTEX
  8
Top_Silk
  10
0.6699
  20
0.5335
  42
1
  0
VERTEX
  8
Top_Silk
  10
0.6676
  20
0.5335
  42
1
  0
SEQEND
  0
POLYLINE
  8
Top_Silk
  6
CONTINUOUS
  66
1
  70
0
  40
0.0046
  41
0.0046
  0
VERTEX
  8
Top_Silk
  10
0.6788
  20
0.5493
  42
0
  0
VERTEX
  8
Top_Silk
  10
0.6888
  20
0.5335
  42
0
  0
SEQEND
  0
POLYLINE
  8
Top_Silk
  6
CONTINUOUS
  66
1
  70
0
  40
0.0023
  41
0.0023
  0
VERTEX
  8
Top_Silk
  10
0.6776
  20
0.5493
  42
1
  0
VERTEX
  8
Top_Silk
  10
0.6799
  20
0.5493
  42
1
  0
VERTEX
  8
Top_Silk
  10
0.6776
  20
0.5493
  42
1
  0
SEQEND
  0
POLYLINE
  8
Top_Silk
  6
CONTINUOUS
  66
1
  70
0
  40
0.0023
  41
0.0023
  0
VERTEX
  8
Top_Silk
  10
0.6876
  20
0.5335
  42
1
  0
VERTEX
  8
Top_Silk
  10
0.69
  20
0.5335
  42
1
  0
VERTEX
  8
Top_Silk
  10
0.6876
  20
0.5335
  42
1
  0
SEQEND
  0
POLYLINE
  8
Top_Silk
  6
CONTINUOUS
  66
1
  70
0
  40
0.0046
  41
0.0046
  0
VERTEX
  8
Top_Silk
  10
0.6995
  20
0.5564
  42
0
  0
VERTEX
  8
Top_Silk
  10
0.6995
  20
0.5579
  42
0
  0
VERTEX
  8
Top_Silk
  10
0.701
  20
0.5608
  42
0
  0
VERTEX
  8
Top_Silk
  10
0.7024
  20
0.5622
  42
0
  0
VERTEX
  8
Top_Silk
  10
0.7053
  20
0.5636
  42
0
  0
VERTEX
  8
Top_Silk
  10
0.711
  20
0.5636
  42
0
  0
VERTEX
  8
Top_Silk
  10
0.7139
  20
0.5622
  42
0
  0
VERTEX
  8
Top_Silk
  10
0.7153
  20
0.5608
  42
0
  0
VERTEX
  8
Top_Silk
  10
0.7167
  20
0.5579
  42
0
  0
VERTEX
  8
Top_Silk
  10
0.7167
  20
0.555
  42
0
  0
VERTEX
  8
Top_Silk
  10
0.7153
  20
0.5521
  42
0
  0
VERTEX
  8
Top_Silk
  10
0.7124
  20
0.5479
  42
0
  0
VERTEX
  8
Top_Silk
  10
0.6981
  20
0.5335
  42
0
  0
VERTEX
  8
Top_Silk
  10
0.7182
  20
0.5335
  42
0
  0
SEQEND
  0
POLYLINE
  8
Top_Silk
  6
CONTINUOUS
  66
1
  70
0
  40
0.0023
  41
0.0023
  0
VERTEX
  8
Top_Silk
  10
0.6984
  20
0.5564
  42
1
  0
VERTEX
  8
Top_Silk
  10
0.7007
  20
0.5564
  42
1
  0
VERTEX
  8
Top_Silk
  10
0.6984
  20
0.5564
  42
1
  0
SEQEND
  0
POLYLINE
  8
Top_Silk
  6
CONTINUOUS
  66
1
  70
0
  40
0.0023
  41
0.0023
  0
VERTEX
  8
Top_Silk
  10
0.717
  20
0.5335
  42
1
  0
VERTEX
  8
Top_Silk
  10
0.7193
  20
0.5335
  42
1
  0
VERTEX
  8
Top_Silk
  10
0.717
  20
0.5335
  42
1
  0
SEQEND
  0
POLYLINE
  8
Top_Silk
  6
CONTINUOUS
  66
1
  70
0
  40
0.0046
  41
0.0046
  0
VERTEX
  8
Top_Silk
  10
0.7274
  20
0.5285
  42
0
  0
VERTEX
  8
Top_Silk
  10
0.7547
  20
0.5285
  42
0
  0
SEQEND
  0
POLYLINE
  8
Top_Silk
  6
CONTINUOUS
  66
1
  70
0
  40
0.0023
  41
0.0023
  0
VERTEX
  8
Top_Silk
  10
0.7263
  20
0.5285
  42
1
  0
VERTEX
  8
Top_Silk
  10
0.7286
  20
0.5285
  42
1
  0
VERTEX
  8
Top_Silk
  10
0.7263
  20
0.5285
  42
1
  0
SEQEND
  0
POLYLINE
  8
Top_Silk
  6
CONTINUOUS
  66
1
  70
0
  40
0.0023
  41
0.0023
  0
VERTEX
  8
Top_Silk
  10
0.7535
  20
0.5285
  42
1
  0
VERTEX
  8
Top_Silk
  10
0.7558
  20
0.5285
  42
1
  0
VERTEX
  8
Top_Silk
  10
0.7535
  20
0.5285
  42
1
  0
SEQEND
  0
POLYLINE
  8
Top_Silk
  6
CONTINUOUS
  66
1
  70
0
  40
0.0046
  41
0.0046
  0
VERTEX
  8
Top_Silk
  10
0.7812
  20
0.5636
  42
0
  0
VERTEX
  8
Top_Silk
  10
0.7668
  20
0.5636
  42
0
  0
VERTEX
  8
Top_Silk
  10
0.7654
  20
0.5507
  42
0
  0
VERTEX
  8
Top_Silk
  10
0.7668
  20
0.5521
  42
0
  0
VERTEX
  8
Top_Silk
  10
0.7711
  20
0.5536
  42
0
  0
VERTEX
  8
Top_Silk
  10
0.7754
  20
0.5536
  42
0
  0
VERTEX
  8
Top_Silk
  10
0.7797
  20
0.5521
  42
0
  0
VERTEX
  8
Top_Silk
  10
0.7826
  20
0.5493
  42
0
  0
VERTEX
  8
Top_Silk
  10
0.784
  20
0.545
  42
0
  0
VERTEX
  8
Top_Silk
  10
0.784
  20
0.5421
  42
0
  0
VERTEX
  8
Top_Silk
  10
0.7826
  20
0.5378
  42
0
  0
VERTEX
  8
Top_Silk
  10
0.7797
  20
0.5349
  42
0
  0
VERTEX
  8
Top_Silk
  10
0.7754
  20
0.5335
  42
0
  0
VERTEX
  8
Top_Silk
  10
0.7711
  20
0.5335
  42
0
  0
VERTEX
  8
Top_Silk
  10
0.7668
  20
0.5349
  42
0
  0
VERTEX
  8
Top_Silk
  10
0.7654
  20
0.5364
  42
0
  0
VERTEX
  8
Top_Silk
  10
0.764
  20
0.5392
  42
0
  0
SEQEND
  0
POLYLINE
  8
Top_Silk
  6
CONTINUOUS
  66
1
  70
0
  40
0.0023
  41
0.0023
  0
VERTEX
  8
Top_Silk
  10
0.78
  20
0.5636
  42
1
  0
VERTEX
  8
Top_Silk
  10
0.7823
  20
0.5636
  42
1
  0
VERTEX
  8
Top_Silk
  10
0.78
  20
0.5636
  42
1
  0
SEQEND
  0
POLYLINE
  8
Top_Silk
  6
CONTINUOUS
  66
1
  70
0
  40
0.0023
  41
0.0023
  0
VERTEX
  8
Top_Silk
  10
0.7628
  20
0.5392
  42
1
  0
VERTEX
  8
Top_Silk
  10
0.7651
  20
0.5392
  42
1
  0
VERTEX
  8
Top_Silk
  10
0.7628
  20
0.5392
  42
1
  0
SEQEND
  0
POLYLINE
  8
Top_Silk
  6
CONTINUOUS
  66
1
  70
0
  40
0.0046
  41
0.0046
  0
VERTEX
  8
Top_Silk
  10
0.6726
  20
0.3354
  42
0
  0
VERTEX
  8
Top_Silk
  10
0.6855
  20
0.3354
  42
0
  0
VERTEX
  8
Top_Silk
  10
0.6899
  20
0.3368
  42
0
  0
VERTEX
  8
Top_Silk
  10
0.6913
  20
0.3383
  42
0
  0
VERTEX
  8
Top_Silk
  10
0.6927
  20
0.3411
  42
0
  0
VERTEX
  8
Top_Silk
  10
0.6927
  20
0.344
  42
0
  0
VERTEX
  8
Top_Silk
  10
0.6913
  20
0.3469
  42
0
  0
VERTEX
  8
Top_Silk
  10
0.6899
  20
0.3483
  42
0
  0
VERTEX
  8
Top_Silk
  10
0.6855
  20
0.3497
  42
0
  0
VERTEX
  8
Top_Silk
  10
0.6726
  20
0.3497
  42
0
  0
VERTEX
  8
Top_Silk
  10
0.6726
  20
0.3196
  42
0
  0
SEQEND
  0
POLYLINE
  8
Top_Silk
  6
CONTINUOUS
  66
1
  70
0
  40
0.0023
  41
0.0023
  0
VERTEX
  8
Top_Silk
  10
0.6715
  20
0.3354
  42
1
  0
VERTEX
  8
Top_Silk
  10
0.6738
  20
0.3354
  42
1
  0
VERTEX
  8
Top_Silk
  10
0.6715
  20
0.3354
  42
1
  0
SEQEND
  0
POLYLINE
  8
Top_Silk
  6
CONTINUOUS
  66
1
  70
0
  40
0.0023
  41
0.0023
  0
VERTEX
  8
Top_Silk
  10
0.6715
  20
0.3196
  42
1
  0
VERTEX
  8
Top_Silk
  10
0.6738
  20
0.3196
  42
1
  0
VERTEX
  8
Top_Silk
  10
0.6715
  20
0.3196
  42
1
  0
SEQEND
  0
POLYLINE
  8
Top_Silk
  6
CONTINUOUS
  66
1
  70
0
  40
0.0046
  41
0.0046
  0
VERTEX
  8
Top_Silk
  10
0.6827
  20
0.3354
  42
0
  0
VERTEX
  8
Top_Silk
  10
0.6927
  20
0.3196
  42
0
  0
SEQEND
  0
POLYLINE
  8
Top_Silk
  6
CONTINUOUS
  66
1
  70
0
  40
0.0023
  41
0.0023
  0
VERTEX
  8
Top_Silk
  10
0.6815
  20
0.3354
  42
1
  0
VERTEX
  8
Top_Silk
  10
0.6839
  20
0.3354
  42
1
  0
VERTEX
  8
Top_Silk
  10
0.6815
  20
0.3354
  42
1
  0
SEQEND
  0
POLYLINE
  8
Top_Silk
  6
CONTINUOUS
  66
1
  70
0
  40
0.0023
  41
0.0023
  0
VERTEX
  8
Top_Silk
  10
0.6916
  20
0.3196
  42
1
  0
VERTEX
  8
Top_Silk
  10
0.6939
  20
0.3196
  42
1
  0
VERTEX
  8
Top_Silk
  10
0.6916
  20
0.3196
  42
1
  0
SEQEND
  0
POLYLINE
  8
Top_Silk
  6
CONTINUOUS
  66
1
  70
0
  40
0.0046
  41
0.0046
  0
VERTEX
  8
Top_Silk
  10
0.7049
  20
0.3497
  42
0
  0
VERTEX
  8
Top_Silk
  10
0.7206
  20
0.3497
  42
0
  0
VERTEX
  8
Top_Silk
  10
0.7121
  20
0.3382
  42
0
  0
VERTEX
  8
Top_Silk
  10
0.7164
  20
0.3382
  42
0
  0
VERTEX
  8
Top_Silk
  10
0.7192
  20
0.3368
  42
0
  0
VERTEX
  8
Top_Silk
  10
0.7206
  20
0.3354
  42
0
  0
VERTEX
  8
Top_Silk
  10
0.7221
  20
0.3311
  42
0
  0
VERTEX
  8
Top_Silk
  10
0.7221
  20
0.3282
  42
0
  0
VERTEX
  8
Top_Silk
  10
0.7206
  20
0.3239
  42
0
  0
VERTEX
  8
Top_Silk
  10
0.7178
  20
0.321
  42
0
  0
VERTEX
  8
Top_Silk
  10
0.7135
  20
0.3196
  42
0
  0
VERTEX
  8
Top_Silk
  10
0.7092
  20
0.3196
  42
0
  0
VERTEX
  8
Top_Silk
  10
0.7049
  20
0.321
  42
0
  0
VERTEX
  8
Top_Silk
  10
0.7035
  20
0.3225
  42
0
  0
VERTEX
  8
Top_Silk
  10
0.702
  20
0.3253
  42
0
  0
SEQEND
  0
POLYLINE
  8
Top_Silk
  6
CONTINUOUS
  66
1
  70
0
  40
0.0023
  41
0.0023
  0
VERTEX
  8
Top_Silk
  10
0.7037
  20
0.3497
  42
1
  0
VERTEX
  8
Top_Silk
  10
0.706
  20
0.3497
  42
1
  0
VERTEX
  8
Top_Silk
  10
0.7037
  20
0.3497
  42
1
  0
SEQEND
  0
POLYLINE
  8
Top_Silk
  6
CONTINUOUS
  66
1
  70
0
  40
0.0023
  41
0.0023
  0
VERTEX
  8
Top_Silk
  10
0.7008
  20
0.3253
  42
1
  0
VERTEX
  8
Top_Silk
  10
0.7032
  20
0.3253
  42
1
  0
VERTEX
  8
Top_Silk
  10
0.7008
  20
0.3253
  42
1
  0
SEQEND
  0
POLYLINE
  8
Top_Silk
  6
CONTINUOUS
  66
1
  70
0
  40
0.0046
  41
0.0046
  0
VERTEX
  8
Top_Silk
  10
0.7314
  20
0.3146
  42
0
  0
VERTEX
  8
Top_Silk
  10
0.7586
  20
0.3146
  42
0
  0
SEQEND
  0
POLYLINE
  8
Top_Silk
  6
CONTINUOUS
  66
1
  70
0
  40
0.0023
  41
0.0023
  0
VERTEX
  8
Top_Silk
  10
0.7302
  20
0.3146
  42
1
  0
VERTEX
  8
Top_Silk
  10
0.7325
  20
0.3146
  42
1
  0
VERTEX
  8
Top_Silk
  10
0.7302
  20
0.3146
  42
1
  0
SEQEND
  0
POLYLINE
  8
Top_Silk
  6
CONTINUOUS
  66
1
  70
0
  40
0.0023
  41
0.0023
  0
VERTEX
  8
Top_Silk
  10
0.7575
  20
0.3146
  42
1
  0
VERTEX
  8
Top_Silk
  10
0.7598
  20
0.3146
  42
1
  0
VERTEX
  8
Top_Silk
  10
0.7575
  20
0.3146
  42
1
  0
SEQEND
  0
POLYLINE
  8
Top_Silk
  6
CONTINUOUS
  66
1
  70
0
  40
0.0046
  41
0.0046
  0
VERTEX
  8
Top_Silk
  10
0.7851
  20
0.3497
  42
0
  0
VERTEX
  8
Top_Silk
  10
0.7708
  20
0.3497
  42
0
  0
VERTEX
  8
Top_Silk
  10
0.7693
  20
0.3368
  42
0
  0
VERTEX
  8
Top_Silk
  10
0.7708
  20
0.3382
  42
0
  0
VERTEX
  8
Top_Silk
  10
0.7751
  20
0.3397
  42
0
  0
VERTEX
  8
Top_Silk
  10
0.7794
  20
0.3397
  42
0
  0
VERTEX
  8
Top_Silk
  10
0.7837
  20
0.3382
  42
0
  0
VERTEX
  8
Top_Silk
  10
0.7866
  20
0.3354
  42
0
  0
VERTEX
  8
Top_Silk
  10
0.788
  20
0.3311
  42
0
  0
VERTEX
  8
Top_Silk
  10
0.788
  20
0.3282
  42
0
  0
VERTEX
  8
Top_Silk
  10
0.7866
  20
0.3239
  42
0
  0
VERTEX
  8
Top_Silk
  10
0.7837
  20
0.321
  42
0
  0
VERTEX
  8
Top_Silk
  10
0.7794
  20
0.3196
  42
0
  0
VERTEX
  8
Top_Silk
  10
0.7751
  20
0.3196
  42
0
  0
VERTEX
  8
Top_Silk
  10
0.7708
  20
0.321
  42
0
  0
VERTEX
  8
Top_Silk
  10
0.7693
  20
0.3225
  42
0
  0
VERTEX
  8
Top_Silk
  10
0.7679
  20
0.3253
  42
0
  0
SEQEND
  0
POLYLINE
  8
Top_Silk
  6
CONTINUOUS
  66
1
  70
0
  40
0.0023
  41
0.0023
  0
VERTEX
  8
Top_Silk
  10
0.7839
  20
0.3497
  42
1
  0
VERTEX
  8
Top_Silk
  10
0.7863
  20
0.3497
  42
1
  0
VERTEX
  8
Top_Silk
  10
0.7839
  20
0.3497
  42
1
  0
SEQEND
  0
POLYLINE
  8
Top_Silk
  6
CONTINUOUS
  66
1
  70
0
  40
0.0023
  41
0.0023
  0
VERTEX
  8
Top_Silk
  10
0.7667
  20
0.3253
  42
1
  0
VERTEX
  8
Top_Silk
  10
0.769
  20
0.3253
  42
1
  0
VERTEX
  8
Top_Silk
  10
0.7667
  20
0.3253
  42
1
  0
SEQEND
  0
POLYLINE
  8
Top_Silk
  6
CONTINUOUS
  66
1
  70
0
  40
0.0046
  41
0.0046
  0
VERTEX
  8
Top_Silk
  10
0.6562
  20
0.8708
  42
0
  0
VERTEX
  8
Top_Silk
  10
0.6691
  20
0.8708
  42
0
  0
VERTEX
  8
Top_Silk
  10
0.6734
  20
0.8723
  42
0
  0
VERTEX
  8
Top_Silk
  10
0.6749
  20
0.8737
  42
0
  0
VERTEX
  8
Top_Silk
  10
0.6763
  20
0.8766
  42
0
  0
VERTEX
  8
Top_Silk
  10
0.6763
  20
0.8794
  42
0
  0
VERTEX
  8
Top_Silk
  10
0.6749
  20
0.8823
  42
0
  0
VERTEX
  8
Top_Silk
  10
0.6734
  20
0.8838
  42
0
  0
VERTEX
  8
Top_Silk
  10
0.6691
  20
0.8852
  42
0
  0
VERTEX
  8
Top_Silk
  10
0.6562
  20
0.8852
  42
0
  0
VERTEX
  8
Top_Silk
  10
0.6562
  20
0.855
  42
0
  0
SEQEND
  0
POLYLINE
  8
Top_Silk
  6
CONTINUOUS
  66
1
  70
0
  40
0.0023
  41
0.0023
  0
VERTEX
  8
Top_Silk
  10
0.655
  20
0.8708
  42
1
  0
VERTEX
  8
Top_Silk
  10
0.6573
  20
0.8708
  42
1
  0
VERTEX
  8
Top_Silk
  10
0.655
  20
0.8708
  42
1
  0
SEQEND
  0
POLYLINE
  8
Top_Silk
  6
CONTINUOUS
  66
1
  70
0
  40
0.0023
  41
0.0023
  0
VERTEX
  8
Top_Silk
  10
0.655
  20
0.855
  42
1
  0
VERTEX
  8
Top_Silk
  10
0.6573
  20
0.855
  42
1
  0
VERTEX
  8
Top_Silk
  10
0.655
  20
0.855
  42
1
  0
SEQEND
  0
POLYLINE
  8
Top_Silk
  6
CONTINUOUS
  66
1
  70
0
  40
0.0046
  41
0.0046
  0
VERTEX
  8
Top_Silk
  10
0.6662
  20
0.8708
  42
0
  0
VERTEX
  8
Top_Silk
  10
0.6763
  20
0.855
  42
0
  0
SEQEND
  0
POLYLINE
  8
Top_Silk
  6
CONTINUOUS
  66
1
  70
0
  40
0.0023
  41
0.0023
  0
VERTEX
  8
Top_Silk
  10
0.6651
  20
0.8708
  42
1
  0
VERTEX
  8
Top_Silk
  10
0.6674
  20
0.8708
  42
1
  0
VERTEX
  8
Top_Silk
  10
0.6651
  20
0.8708
  42
1
  0
SEQEND
  0
POLYLINE
  8
Top_Silk
  6
CONTINUOUS
  66
1
  70
0
  40
0.0023
  41
0.0023
  0
VERTEX
  8
Top_Silk
  10
0.6751
  20
0.855
  42
1
  0
VERTEX
  8
Top_Silk
  10
0.6774
  20
0.855
  42
1
  0
VERTEX
  8
Top_Silk
  10
0.6751
  20
0.855
  42
1
  0
SEQEND
  0
POLYLINE
  8
Top_Silk
  6
CONTINUOUS
  66
1
  70
0
  40
0.0046
  41
0.0046
  0
VERTEX
  8
Top_Silk
  10
0.6999
  20
0.855
  42
0
  0
VERTEX
  8
Top_Silk
  10
0.6999
  20
0.8851
  42
0
  0
VERTEX
  8
Top_Silk
  10
0.6855
  20
0.8651
  42
0
  0
VERTEX
  8
Top_Silk
  10
0.7071
  20
0.8651
  42
0
  0
SEQEND
  0
POLYLINE
  8
Top_Silk
  6
CONTINUOUS
  66
1
  70
0
  40
0.0023
  41
0.0023
  0
VERTEX
  8
Top_Silk
  10
0.6987
  20
0.855
  42
1
  0
VERTEX
  8
Top_Silk
  10
0.7011
  20
0.855
  42
1
  0
VERTEX
  8
Top_Silk
  10
0.6987
  20
0.855
  42
1
  0
SEQEND
  0
POLYLINE
  8
Top_Silk
  6
CONTINUOUS
  66
1
  70
0
  40
0.0023
  41
0.0023
  0
VERTEX
  8
Top_Silk
  10
0.7059
  20
0.8651
  42
1
  0
VERTEX
  8
Top_Silk
  10
0.7082
  20
0.8651
  42
1
  0
VERTEX
  8
Top_Silk
  10
0.7059
  20
0.8651
  42
1
  0
SEQEND
  0
POLYLINE
  8
Top_Silk
  6
CONTINUOUS
  66
1
  70
0
  40
0.0046
  41
0.0046
  0
VERTEX
  8
Top_Silk
  10
0.7163
  20
0.8501
  42
0
  0
VERTEX
  8
Top_Silk
  10
0.7436
  20
0.8501
  42
0
  0
SEQEND
  0
POLYLINE
  8
Top_Silk
  6
CONTINUOUS
  66
1
  70
0
  40
0.0023
  41
0.0023
  0
VERTEX
  8
Top_Silk
  10
0.7152
  20
0.8501
  42
1
  0
VERTEX
  8
Top_Silk
  10
0.7175
  20
0.8501
  42
1
  0
VERTEX
  8
Top_Silk
  10
0.7152
  20
0.8501
  42
1
  0
SEQEND
  0
POLYLINE
  8
Top_Silk
  6
CONTINUOUS
  66
1
  70
0
  40
0.0023
  41
0.0023
  0
VERTEX
  8
Top_Silk
  10
0.7424
  20
0.8501
  42
1
  0
VERTEX
  8
Top_Silk
  10
0.7447
  20
0.8501
  42
1
  0
VERTEX
  8
Top_Silk
  10
0.7424
  20
0.8501
  42
1
  0
SEQEND
  0
POLYLINE
  8
Top_Silk
  6
CONTINUOUS
  66
1
  70
0
  40
0.0046
  41
0.0046
  0
VERTEX
  8
Top_Silk
  10
0.7701
  20
0.8851
  42
0
  0
VERTEX
  8
Top_Silk
  10
0.7557
  20
0.8851
  42
0
  0
VERTEX
  8
Top_Silk
  10
0.7543
  20
0.8722
  42
0
  0
VERTEX
  8
Top_Silk
  10
0.7557
  20
0.8737
  42
0
  0
VERTEX
  8
Top_Silk
  10
0.76
  20
0.8751
  42
0
  0
VERTEX
  8
Top_Silk
  10
0.7643
  20
0.8751
  42
0
  0
VERTEX
  8
Top_Silk
  10
0.7686
  20
0.8737
  42
0
  0
VERTEX
  8
Top_Silk
  10
0.7715
  20
0.8708
  42
0
  0
VERTEX
  8
Top_Silk
  10
0.7729
  20
0.8665
  42
0
  0
VERTEX
  8
Top_Silk
  10
0.7729
  20
0.8637
  42
0
  0
VERTEX
  8
Top_Silk
  10
0.7715
  20
0.8593
  42
0
  0
VERTEX
  8
Top_Silk
  10
0.7686
  20
0.8565
  42
0
  0
VERTEX
  8
Top_Silk
  10
0.7643
  20
0.855
  42
0
  0
VERTEX
  8
Top_Silk
  10
0.76
  20
0.855
  42
0
  0
VERTEX
  8
Top_Silk
  10
0.7557
  20
0.8565
  42
0
  0
VERTEX
  8
Top_Silk
  10
0.7543
  20
0.8579
  42
0
  0
VERTEX
  8
Top_Silk
  10
0.7529
  20
0.8608
  42
0
  0
SEQEND
  0
POLYLINE
  8
Top_Silk
  6
CONTINUOUS
  66
1
  70
0
  40
0.0023
  41
0.0023
  0
VERTEX
  8
Top_Silk
  10
0.7689
  20
0.8851
  42
1
  0
VERTEX
  8
Top_Silk
  10
0.7712
  20
0.8851
  42
1
  0
VERTEX
  8
Top_Silk
  10
0.7689
  20
0.8851
  42
1
  0
SEQEND
  0
POLYLINE
  8
Top_Silk
  6
CONTINUOUS
  66
1
  70
0
  40
0.0023
  41
0.0023
  0
VERTEX
  8
Top_Silk
  10
0.7517
  20
0.8608
  42
1
  0
VERTEX
  8
Top_Silk
  10
0.754
  20
0.8608
  42
1
  0
VERTEX
  8
Top_Silk
  10
0.7517
  20
0.8608
  42
1
  0
SEQEND
  0
POLYLINE
  8
Top_Silk
  6
CONTINUOUS
  66
1
  70
0
  40
0.0046
  41
0.0046
  0
VERTEX
  8
Top_Silk
  10
0.3445
  20
0.6295
  42
0
  0
VERTEX
  8
Top_Silk
  10
0.3445
  20
0.608
  42
0
  0
VERTEX
  8
Top_Silk
  10
0.346
  20
0.6037
  42
0
  0
VERTEX
  8
Top_Silk
  10
0.3489
  20
0.6009
  42
0
  0
VERTEX
  8
Top_Silk
  10
0.3532
  20
0.5994
  42
0
  0
VERTEX
  8
Top_Silk
  10
0.356
  20
0.5994
  42
0
  0
VERTEX
  8
Top_Silk
  10
0.3603
  20
0.6009
  42
0
  0
VERTEX
  8
Top_Silk
  10
0.3632
  20
0.6037
  42
0
  0
VERTEX
  8
Top_Silk
  10
0.3646
  20
0.608
  42
0
  0
VERTEX
  8
Top_Silk
  10
0.3646
  20
0.6295
  42
0
  0
SEQEND
  0
POLYLINE
  8
Top_Silk
  6
CONTINUOUS
  66
1
  70
0
  40
0.0023
  41
0.0023
  0
VERTEX
  8
Top_Silk
  10
0.3434
  20
0.6295
  42
1
  0
VERTEX
  8
Top_Silk
  10
0.3457
  20
0.6295
  42
1
  0
VERTEX
  8
Top_Silk
  10
0.3434
  20
0.6295
  42
1
  0
SEQEND
  0
POLYLINE
  8
Top_Silk
  6
CONTINUOUS
  66
1
  70
0
  40
0.0023
  41
0.0023
  0
VERTEX
  8
Top_Silk
  10
0.3635
  20
0.6295
  42
1
  0
VERTEX
  8
Top_Silk
  10
0.3658
  20
0.6295
  42
1
  0
VERTEX
  8
Top_Silk
  10
0.3635
  20
0.6295
  42
1
  0
SEQEND
  0
POLYLINE
  8
Top_Silk
  6
CONTINUOUS
  66
1
  70
0
  40
0.0046
  41
0.0046
  0
VERTEX
  8
Top_Silk
  10
0.3754
  20
0.6224
  42
0
  0
VERTEX
  8
Top_Silk
  10
0.3754
  20
0.6238
  42
0
  0
VERTEX
  8
Top_Silk
  10
0.3768
  20
0.6267
  42
0
  0
VERTEX
  8
Top_Silk
  10
0.3782
  20
0.6281
  42
0
  0
VERTEX
  8
Top_Silk
  10
0.3811
  20
0.6295
  42
0
  0
VERTEX
  8
Top_Silk
  10
0.3868
  20
0.6295
  42
0
  0
VERTEX
  8
Top_Silk
  10
0.3897
  20
0.6281
  42
0
  0
VERTEX
  8
Top_Silk
  10
0.3911
  20
0.6267
  42
0
  0
VERTEX
  8
Top_Silk
  10
0.3926
  20
0.6238
  42
0
  0
VERTEX
  8
Top_Silk
  10
0.3926
  20
0.6209
  42
0
  0
VERTEX
  8
Top_Silk
  10
0.3911
  20
0.618
  42
0
  0
VERTEX
  8
Top_Silk
  10
0.3883
  20
0.6138
  42
0
  0
VERTEX
  8
Top_Silk
  10
0.3739
  20
0.5994
  42
0
  0
VERTEX
  8
Top_Silk
  10
0.394
  20
0.5994
  42
0
  0
SEQEND
  0
POLYLINE
  8
Top_Silk
  6
CONTINUOUS
  66
1
  70
0
  40
0.0023
  41
0.0023
  0
VERTEX
  8
Top_Silk
  10
0.3742
  20
0.6224
  42
1
  0
VERTEX
  8
Top_Silk
  10
0.3765
  20
0.6224
  42
1
  0
VERTEX
  8
Top_Silk
  10
0.3742
  20
0.6224
  42
1
  0
SEQEND
  0
POLYLINE
  8
Top_Silk
  6
CONTINUOUS
  66
1
  70
0
  40
0.0023
  41
0.0023
  0
VERTEX
  8
Top_Silk
  10
0.3928
  20
0.5994
  42
1
  0
VERTEX
  8
Top_Silk
  10
0.3952
  20
0.5994
  42
1
  0
VERTEX
  8
Top_Silk
  10
0.3928
  20
0.5994
  42
1
  0
SEQEND
  0
POLYLINE
  8
Top_Silk
  6
CONTINUOUS
  66
1
  70
0
  40
0.0046
  41
0.0046
  0
VERTEX
  8
Top_Silk
  10
0.4033
  20
0.5944
  42
0
  0
VERTEX
  8
Top_Silk
  10
0.4305
  20
0.5944
  42
0
  0
SEQEND
  0
POLYLINE
  8
Top_Silk
  6
CONTINUOUS
  66
1
  70
0
  40
0.0023
  41
0.0023
  0
VERTEX
  8
Top_Silk
  10
0.4021
  20
0.5944
  42
1
  0
VERTEX
  8
Top_Silk
  10
0.4044
  20
0.5944
  42
1
  0
VERTEX
  8
Top_Silk
  10
0.4021
  20
0.5944
  42
1
  0
SEQEND
  0
POLYLINE
  8
Top_Silk
  6
CONTINUOUS
  66
1
  70
0
  40
0.0023
  41
0.0023
  0
VERTEX
  8
Top_Silk
  10
0.4294
  20
0.5944
  42
1
  0
VERTEX
  8
Top_Silk
  10
0.4317
  20
0.5944
  42
1
  0
VERTEX
  8
Top_Silk
  10
0.4294
  20
0.5944
  42
1
  0
SEQEND
  0
POLYLINE
  8
Top_Silk
  6
CONTINUOUS
  66
1
  70
0
  40
0.0046
  41
0.0046
  0
VERTEX
  8
Top_Silk
  10
0.457
  20
0.6295
  42
0
  0
VERTEX
  8
Top_Silk
  10
0.4427
  20
0.6295
  42
0
  0
VERTEX
  8
Top_Silk
  10
0.4412
  20
0.6166
  42
0
  0
VERTEX
  8
Top_Silk
  10
0.4427
  20
0.618
  42
0
  0
VERTEX
  8
Top_Silk
  10
0.447
  20
0.6195
  42
0
  0
VERTEX
  8
Top_Silk
  10
0.4513
  20
0.6195
  42
0
  0
VERTEX
  8
Top_Silk
  10
0.4556
  20
0.618
  42
0
  0
VERTEX
  8
Top_Silk
  10
0.4585
  20
0.6152
  42
0
  0
VERTEX
  8
Top_Silk
  10
0.4599
  20
0.6109
  42
0
  0
VERTEX
  8
Top_Silk
  10
0.4599
  20
0.608
  42
0
  0
VERTEX
  8
Top_Silk
  10
0.4585
  20
0.6037
  42
0
  0
VERTEX
  8
Top_Silk
  10
0.4556
  20
0.6008
  42
0
  0
VERTEX
  8
Top_Silk
  10
0.4513
  20
0.5994
  42
0
  0
VERTEX
  8
Top_Silk
  10
0.447
  20
0.5994
  42
0
  0
VERTEX
  8
Top_Silk
  10
0.4427
  20
0.6008
  42
0
  0
VERTEX
  8
Top_Silk
  10
0.4412
  20
0.6023
  42
0
  0
VERTEX
  8
Top_Silk
  10
0.4398
  20
0.6051
  42
0
  0
SEQEND
  0
POLYLINE
  8
Top_Silk
  6
CONTINUOUS
  66
1
  70
0
  40
0.0023
  41
0.0023
  0
VERTEX
  8
Top_Silk
  10
0.4558
  20
0.6295
  42
1
  0
VERTEX
  8
Top_Silk
  10
0.4582
  20
0.6295
  42
1
  0
VERTEX
  8
Top_Silk
  10
0.4558
  20
0.6295
  42
1
  0
SEQEND
  0
POLYLINE
  8
Top_Silk
  6
CONTINUOUS
  66
1
  70
0
  40
0.0023
  41
0.0023
  0
VERTEX
  8
Top_Silk
  10
0.4386
  20
0.6051
  42
1
  0
VERTEX
  8
Top_Silk
  10
0.4409
  20
0.6051
  42
1
  0
VERTEX
  8
Top_Silk
  10
0.4386
  20
0.6051
  42
1
  0
SEQEND
  0
POLYLINE
  8
Top_Silk
  6
CONTINUOUS
  66
1
  70
0
  40
0.0046
  41
0.0046
  0
VERTEX
  8
Top_Silk
  10
0.8194
  20
0.4502
  42
0
  0
VERTEX
  8
Top_Silk
  10
0.8409
  20
0.4502
  42
0
  0
VERTEX
  8
Top_Silk
  10
0.8452
  20
0.4516
  42
0
  0
VERTEX
  8
Top_Silk
  10
0.848
  20
0.4545
  42
0
  0
VERTEX
  8
Top_Silk
  10
0.8495
  20
0.4588
  42
0
  0
VERTEX
  8
Top_Silk
  10
0.8495
  20
0.4617
  42
0
  0
VERTEX
  8
Top_Silk
  10
0.848
  20
0.466
  42
0
  0
VERTEX
  8
Top_Silk
  10
0.8452
  20
0.4689
  42
0
  0
VERTEX
  8
Top_Silk
  10
0.8409
  20
0.4703
  42
0
  0
VERTEX
  8
Top_Silk
  10
0.8194
  20
0.4703
  42
0
  0
SEQEND
  0
POLYLINE
  8
Top_Silk
  6
CONTINUOUS
  66
1
  70
0
  40
0.0023
  41
0.0023
  0
VERTEX
  8
Top_Silk
  10
0.8182
  20
0.4502
  42
1
  0
VERTEX
  8
Top_Silk
  10
0.8205
  20
0.4502
  42
1
  0
VERTEX
  8
Top_Silk
  10
0.8182
  20
0.4502
  42
1
  0
SEQEND
  0
POLYLINE
  8
Top_Silk
  6
CONTINUOUS
  66
1
  70
0
  40
0.0023
  41
0.0023
  0
VERTEX
  8
Top_Silk
  10
0.8182
  20
0.4703
  42
1
  0
VERTEX
  8
Top_Silk
  10
0.8205
  20
0.4703
  42
1
  0
VERTEX
  8
Top_Silk
  10
0.8182
  20
0.4703
  42
1
  0
SEQEND
  0
POLYLINE
  8
Top_Silk
  6
CONTINUOUS
  66
1
  70
0
  40
0.0046
  41
0.0046
  0
VERTEX
  8
Top_Silk
  10
0.8194
  20
0.4824
  42
0
  0
VERTEX
  8
Top_Silk
  10
0.8194
  20
0.4982
  42
0
  0
VERTEX
  8
Top_Silk
  10
0.8309
  20
0.4896
  42
0
  0
VERTEX
  8
Top_Silk
  10
0.8309
  20
0.4939
  42
0
  0
VERTEX
  8
Top_Silk
  10
0.8323
  20
0.4968
  42
0
  0
VERTEX
  8
Top_Silk
  10
0.8337
  20
0.4982
  42
0
  0
VERTEX
  8
Top_Silk
  10
0.838
  20
0.4997
  42
0
  0
VERTEX
  8
Top_Silk
  10
0.8409
  20
0.4997
  42
0
  0
VERTEX
  8
Top_Silk
  10
0.8452
  20
0.4982
  42
0
  0
VERTEX
  8
Top_Silk
  10
0.8481
  20
0.4953
  42
0
  0
VERTEX
  8
Top_Silk
  10
0.8495
  20
0.491
  42
0
  0
VERTEX
  8
Top_Silk
  10
0.8495
  20
0.4867
  42
0
  0
VERTEX
  8
Top_Silk
  10
0.8481
  20
0.4824
  42
0
  0
VERTEX
  8
Top_Silk
  10
0.8466
  20
0.481
  42
0
  0
VERTEX
  8
Top_Silk
  10
0.8438
  20
0.4796
  42
0
  0
SEQEND
  0
POLYLINE
  8
Top_Silk
  6
CONTINUOUS
  66
1
  70
0
  40
0.0023
  41
0.0023
  0
VERTEX
  8
Top_Silk
  10
0.8182
  20
0.4824
  42
1
  0
VERTEX
  8
Top_Silk
  10
0.8205
  20
0.4824
  42
1
  0
VERTEX
  8
Top_Silk
  10
0.8182
  20
0.4824
  42
1
  0
SEQEND
  0
POLYLINE
  8
Top_Silk
  6
CONTINUOUS
  66
1
  70
0
  40
0.0023
  41
0.0023
  0
VERTEX
  8
Top_Silk
  10
0.8426
  20
0.4796
  42
1
  0
VERTEX
  8
Top_Silk
  10
0.8449
  20
0.4796
  42
1
  0
VERTEX
  8
Top_Silk
  10
0.8426
  20
0.4796
  42
1
  0
SEQEND
  0
POLYLINE
  8
Top_Silk
  6
CONTINUOUS
  66
1
  70
0
  40
0.0046
  41
0.0046
  0
VERTEX
  8
Top_Silk
  10
0.8545
  20
0.5089
  42
0
  0
VERTEX
  8
Top_Silk
  10
0.8545
  20
0.5362
  42
0
  0
SEQEND
  0
POLYLINE
  8
Top_Silk
  6
CONTINUOUS
  66
1
  70
0
  40
0.0023
  41
0.0023
  0
VERTEX
  8
Top_Silk
  10
0.8533
  20
0.5089
  42
1
  0
VERTEX
  8
Top_Silk
  10
0.8556
  20
0.5089
  42
1
  0
VERTEX
  8
Top_Silk
  10
0.8533
  20
0.5089
  42
1
  0
SEQEND
  0
POLYLINE
  8
Top_Silk
  6
CONTINUOUS
  66
1
  70
0
  40
0.0023
  41
0.0023
  0
VERTEX
  8
Top_Silk
  10
0.8533
  20
0.5362
  42
1
  0
VERTEX
  8
Top_Silk
  10
0.8556
  20
0.5362
  42
1
  0
VERTEX
  8
Top_Silk
  10
0.8533
  20
0.5362
  42
1
  0
SEQEND
  0
POLYLINE
  8
Top_Silk
  6
CONTINUOUS
  66
1
  70
0
  40
0.0046
  41
0.0046
  0
VERTEX
  8
Top_Silk
  10
0.8194
  20
0.5627
  42
0
  0
VERTEX
  8
Top_Silk
  10
0.8194
  20
0.5483
  42
0
  0
VERTEX
  8
Top_Silk
  10
0.8323
  20
0.5469
  42
0
  0
VERTEX
  8
Top_Silk
  10
0.8309
  20
0.5483
  42
0
  0
VERTEX
  8
Top_Silk
  10
0.8294
  20
0.5526
  42
0
  0
VERTEX
  8
Top_Silk
  10
0.8294
  20
0.5569
  42
0
  0
VERTEX
  8
Top_Silk
  10
0.8309
  20
0.5612
  42
0
  0
VERTEX
  8
Top_Silk
  10
0.8337
  20
0.5641
  42
0
  0
VERTEX
  8
Top_Silk
  10
0.838
  20
0.5655
  42
0
  0
VERTEX
  8
Top_Silk
  10
0.8409
  20
0.5655
  42
0
  0
VERTEX
  8
Top_Silk
  10
0.8452
  20
0.5641
  42
0
  0
VERTEX
  8
Top_Silk
  10
0.8481
  20
0.5612
  42
0
  0
VERTEX
  8
Top_Silk
  10
0.8495
  20
0.5569
  42
0
  0
VERTEX
  8
Top_Silk
  10
0.8495
  20
0.5526
  42
0
  0
VERTEX
  8
Top_Silk
  10
0.8481
  20
0.5483
  42
0
  0
VERTEX
  8
Top_Silk
  10
0.8466
  20
0.5469
  42
0
  0
VERTEX
  8
Top_Silk
  10
0.8438
  20
0.5454
  42
0
  0
SEQEND
  0
POLYLINE
  8
Top_Silk
  6
CONTINUOUS
  66
1
  70
0
  40
0.0023
  41
0.0023
  0
VERTEX
  8
Top_Silk
  10
0.8182
  20
0.5627
  42
1
  0
VERTEX
  8
Top_Silk
  10
0.8205
  20
0.5627
  42
1
  0
VERTEX
  8
Top_Silk
  10
0.8182
  20
0.5627
  42
1
  0
SEQEND
  0
POLYLINE
  8
Top_Silk
  6
CONTINUOUS
  66
1
  70
0
  40
0.0023
  41
0.0023
  0
VERTEX
  8
Top_Silk
  10
0.8426
  20
0.5454
  42
1
  0
VERTEX
  8
Top_Silk
  10
0.8449
  20
0.5454
  42
1
  0
VERTEX
  8
Top_Silk
  10
0.8426
  20
0.5454
  42
1
  0
SEQEND
  0
POLYLINE
  8
Top_Mask
  6
CONTINUOUS
  66
1
  70
0
  40
0.0
  41
0.0
  0
VERTEX
  8
Top_Mask
  10
1.1201
  20
0.5295
  42
0
  0
VERTEX
  8
Top_Mask
  10
1.1201
  20
0.5571
  42
0
  0
VERTEX
  8
Top_Mask
  10
1.0846
  20
0.5571
  42
0
  0
VERTEX
  8
Top_Mask
  10
1.0846
  20
0.5295
  42
0
  0
VERTEX
  8
Top_Mask
  10
1.1201
  20
0.5295
  42
0
  0
SEQEND
  0
POLYLINE
  8
Top_Mask
  6
CONTINUOUS
  66
1
  70
0
  40
0.0
  41
0.0
  0
VERTEX
  8
Top_Mask
  10
1.1201
  20
0.4783
  42
0
  0
VERTEX
  8
Top_Mask
  10
1.1201
  20
0.5059
  42
0
  0
VERTEX
  8
Top_Mask
  10
1.0846
  20
0.5059
  42
0
  0
VERTEX
  8
Top_Mask
  10
1.0846
  20
0.4783
  42
0
  0
VERTEX
  8
Top_Mask
  10
1.1201
  20
0.4783
  42
0
  0
SEQEND
  0
POLYLINE
  8
Top_Mask
  6
CONTINUOUS
  66
1
  70
0
  40
0.0
  41
0.0
  0
VERTEX
  8
Top_Mask
  10
0.9232
  20
0.7815
  42
0
  0
VERTEX
  8
Top_Mask
  10
0.8957
  20
0.7815
  42
0
  0
VERTEX
  8
Top_Mask
  10
0.8957
  20
0.7461
  42
0
  0
VERTEX
  8
Top_Mask
  10
0.9232
  20
0.7461
  42
0
  0
VERTEX
  8
Top_Mask
  10
0.9232
  20
0.7815
  42
0
  0
SEQEND
  0
POLYLINE
  8
Top_Mask
  6
CONTINUOUS
  66
1
  70
0
  40
0.0
  41
0.0
  0
VERTEX
  8
Top_Mask
  10
0.9744
  20
0.7815
  42
0
  0
VERTEX
  8
Top_Mask
  10
0.9469
  20
0.7815
  42
0
  0
VERTEX
  8
Top_Mask
  10
0.9469
  20
0.7461
  42
0
  0
VERTEX
  8
Top_Mask
  10
0.9744
  20
0.7461
  42
0
  0
VERTEX
  8
Top_Mask
  10
0.9744
  20
0.7815
  42
0
  0
SEQEND
  0
POLYLINE
  8
Top_Mask
  6
CONTINUOUS
  66
1
  70
0
  40
0.0
  41
0.0
  0
VERTEX
  8
Top_Mask
  10
0.9429
  20
0.2421
  42
0
  0
VERTEX
  8
Top_Mask
  10
0.9154
  20
0.2421
  42
0
  0
VERTEX
  8
Top_Mask
  10
0.9154
  20
0.2067
  42
0
  0
VERTEX
  8
Top_Mask
  10
0.9429
  20
0.2067
  42
0
  0
VERTEX
  8
Top_Mask
  10
0.9429
  20
0.2421
  42
0
  0
SEQEND
  0
POLYLINE
  8
Top_Mask
  6
CONTINUOUS
  66
1
  70
0
  40
0.0
  41
0.0
  0
VERTEX
  8
Top_Mask
  10
0.9941
  20
0.2421
  42
0
  0
VERTEX
  8
Top_Mask
  10
0.9665
  20
0.2421
  42
0
  0
VERTEX
  8
Top_Mask
  10
0.9665
  20
0.2067
  42
0
  0
VERTEX
  8
Top_Mask
  10
0.9941
  20
0.2067
  42
0
  0
VERTEX
  8
Top_Mask
  10
0.9941
  20
0.2421
  42
0
  0
SEQEND
  0
POLYLINE
  8
Top_Mask
  6
CONTINUOUS
  66
1
  70
0
  40
0.0
  41
0.0
  0
VERTEX
  8
Top_Mask
  10
0.4705
  20
0.6791
  42
0
  0
VERTEX
  8
Top_Mask
  10
0.4429
  20
0.6791
  42
0
  0
VERTEX
  8
Top_Mask
  10
0.4429
  20
0.6437
  42
0
  0
VERTEX
  8
Top_Mask
  10
0.4705
  20
0.6437
  42
0
  0
VERTEX
  8
Top_Mask
  10
0.4705
  20
0.6791
  42
0
  0
SEQEND
  0
POLYLINE
  8
Top_Mask
  6
CONTINUOUS
  66
1
  70
0
  40
0.0
  41
0.0
  0
VERTEX
  8
Top_Mask
  10
0.5217
  20
0.6791
  42
0
  0
VERTEX
  8
Top_Mask
  10
0.4941
  20
0.6791
  42
0
  0
VERTEX
  8
Top_Mask
  10
0.4941
  20
0.6437
  42
0
  0
VERTEX
  8
Top_Mask
  10
0.5217
  20
0.6437
  42
0
  0
VERTEX
  8
Top_Mask
  10
0.5217
  20
0.6791
  42
0
  0
SEQEND
  0
POLYLINE
  8
Top_Mask
  6
CONTINUOUS
  66
1
  70
0
  40
0.0
  41
0.0
  0
VERTEX
  8
Top_Mask
  10
0.4744
  20
0.3287
  42
0
  0
VERTEX
  8
Top_Mask
  10
0.4469
  20
0.3287
  42
0
  0
VERTEX
  8
Top_Mask
  10
0.4469
  20
0.2933
  42
0
  0
VERTEX
  8
Top_Mask
  10
0.4744
  20
0.2933
  42
0
  0
VERTEX
  8
Top_Mask
  10
0.4744
  20
0.3287
  42
0
  0
SEQEND
  0
POLYLINE
  8
Top_Mask
  6
CONTINUOUS
  66
1
  70
0
  40
0.0
  41
0.0
  0
VERTEX
  8
Top_Mask
  10
0.5256
  20
0.3287
  42
0
  0
VERTEX
  8
Top_Mask
  10
0.498
  20
0.3287
  42
0
  0
VERTEX
  8
Top_Mask
  10
0.498
  20
0.2933
  42
0
  0
VERTEX
  8
Top_Mask
  10
0.5256
  20
0.2933
  42
0
  0
VERTEX
  8
Top_Mask
  10
0.5256
  20
0.3287
  42
0
  0
SEQEND
  0
POLYLINE
  8
Top_Mask
  6
CONTINUOUS
  66
1
  70
0
  40
0.063
  41
0.063
  0
VERTEX
  8
Top_Mask
  10
0.1496
  20
0.8661
  42
1
  0
VERTEX
  8
Top_Mask
  10
0.0866
  20
0.8661
  42
1
  0
VERTEX
  8
Top_Mask
  10
0.1496
  20
0.8661
  42
1
  0
SEQEND
  0
POLYLINE
  8
Top_Mask
  6
CONTINUOUS
  66
1
  70
0
  40
0.063
  41
0.063
  0
VERTEX
  8
Top_Mask
  10
0.0866
  20
0.8661
  42
1
  0
VERTEX
  8
Top_Mask
  10
0.1496
  20
0.8661
  42
1
  0
VERTEX
  8
Top_Mask
  10
0.0866
  20
0.8661
  42
1
  0
SEQEND
  0
POLYLINE
  8
Top_Mask
  6
CONTINUOUS
  66
1
  70
0
  40
0.063
  41
0.063
  0
VERTEX
  8
Top_Mask
  10
0.1496
  20
0.1181
  42
1
  0
VERTEX
  8
Top_Mask
  10
0.0866
  20
0.1181
  42
1
  0
VERTEX
  8
Top_Mask
  10
0.1496
  20
0.1181
  42
1
  0
SEQEND
  0
POLYLINE
  8
Top_Mask
  6
CONTINUOUS
  66
1
  70
0
  40
0.063
  41
0.063
  0
VERTEX
  8
Top_Mask
  10
0.0866
  20
0.1181
  42
1
  0
VERTEX
  8
Top_Mask
  10
0.1496
  20
0.1181
  42
1
  0
VERTEX
  8
Top_Mask
  10
0.0866
  20
0.1181
  42
1
  0
SEQEND
  0
POLYLINE
  8
Top_Mask
  6
CONTINUOUS
  66
1
  70
0
  40
0.037
  41
0.037
  0
VERTEX
  8
Top_Mask
  10
1.2744
  20
0.3898
  42
1
  0
VERTEX
  8
Top_Mask
  10
1.2374
  20
0.3898
  42
1
  0
VERTEX
  8
Top_Mask
  10
1.2744
  20
0.3898
  42
1
  0
SEQEND
  0
POLYLINE
  8
Top_Mask
  6
CONTINUOUS
  66
1
  70
0
  40
0.037
  41
0.037
  0
VERTEX
  8
Top_Mask
  10
1.2374
  20
0.3898
  42
1
  0
VERTEX
  8
Top_Mask
  10
1.2744
  20
0.3898
  42
1
  0
VERTEX
  8
Top_Mask
  10
1.2374
  20
0.3898
  42
1
  0
SEQEND
  0
POLYLINE
  8
Top_Mask
  6
CONTINUOUS
  66
1
  70
0
  40
0.065
  41
0.065
  0
VERTEX
  8
Top_Mask
  10
0.1506
  20
0.7008
  42
1
  0
VERTEX
  8
Top_Mask
  10
0.0856
  20
0.7008
  42
1
  0
VERTEX
  8
Top_Mask
  10
0.1506
  20
0.7008
  42
1
  0
SEQEND
  0
POLYLINE
  8
Top_Mask
  6
CONTINUOUS
  66
1
  70
0
  40
0.065
  41
0.065
  0
VERTEX
  8
Top_Mask
  10
0.0856
  20
0.7008
  42
1
  0
VERTEX
  8
Top_Mask
  10
0.1506
  20
0.7008
  42
1
  0
VERTEX
  8
Top_Mask
  10
0.0856
  20
0.7008
  42
1
  0
SEQEND
  0
POLYLINE
  8
Top_Mask
  6
CONTINUOUS
  66
1
  70
0
  40
0.065
  41
0.065
  0
VERTEX
  8
Top_Mask
  10
0.1506
  20
0.2717
  42
1
  0
VERTEX
  8
Top_Mask
  10
0.0856
  20
0.2717
  42
1
  0
VERTEX
  8
Top_Mask
  10
0.1506
  20
0.2717
  42
1
  0
SEQEND
  0
POLYLINE
  8
Top_Mask
  6
CONTINUOUS
  66
1
  70
0
  40
0.065
  41
0.065
  0
VERTEX
  8
Top_Mask
  10
0.0856
  20
0.2717
  42
1
  0
VERTEX
  8
Top_Mask
  10
0.1506
  20
0.2717
  42
1
  0
VERTEX
  8
Top_Mask
  10
0.0856
  20
0.2717
  42
1
  0
SEQEND
  0
POLYLINE
  8
Top_Mask
  6
CONTINUOUS
  66
1
  70
0
  40
0.037
  41
0.037
  0
VERTEX
  8
Top_Mask
  10
0.1366
  20
0.5394
  42
1
  0
VERTEX
  8
Top_Mask
  10
0.0996
  20
0.5394
  42
1
  0
VERTEX
  8
Top_Mask
  10
0.1366
  20
0.5394
  42
1
  0
SEQEND
  0
POLYLINE
  8
Top_Mask
  6
CONTINUOUS
  66
1
  70
0
  40
0.037
  41
0.037
  0
VERTEX
  8
Top_Mask
  10
0.0996
  20
0.5394
  42
1
  0
VERTEX
  8
Top_Mask
  10
0.1366
  20
0.5394
  42
1
  0
VERTEX
  8
Top_Mask
  10
0.0996
  20
0.5394
  42
1
  0
SEQEND
  0
POLYLINE
  8
Top_Mask
  6
CONTINUOUS
  66
1
  70
0
  40
0.037
  41
0.037
  0
VERTEX
  8
Top_Mask
  10
0.1366
  20
0.4331
  42
1
  0
VERTEX
  8
Top_Mask
  10
0.0996
  20
0.4331
  42
1
  0
VERTEX
  8
Top_Mask
  10
0.1366
  20
0.4331
  42
1
  0
SEQEND
  0
POLYLINE
  8
Top_Mask
  6
CONTINUOUS
  66
1
  70
0
  40
0.037
  41
0.037
  0
VERTEX
  8
Top_Mask
  10
0.0996
  20
0.4331
  42
1
  0
VERTEX
  8
Top_Mask
  10
0.1366
  20
0.4331
  42
1
  0
VERTEX
  8
Top_Mask
  10
0.0996
  20
0.4331
  42
1
  0
SEQEND
  0
POLYLINE
  8
Top_Mask
  6
CONTINUOUS
  66
1
  70
0
  40
0.0
  41
0.0
  0
VERTEX
  8
Top_Mask
  10
1.0571
  20
0.5295
  42
0
  0
VERTEX
  8
Top_Mask
  10
1.0571
  20
0.5571
  42
0
  0
VERTEX
  8
Top_Mask
  10
1.0217
  20
0.5571
  42
0
  0
VERTEX
  8
Top_Mask
  10
1.0217
  20
0.5295
  42
0
  0
VERTEX
  8
Top_Mask
  10
1.0571
  20
0.5295
  42
0
  0
SEQEND
  0
POLYLINE
  8
Top_Mask
  6
CONTINUOUS
  66
1
  70
0
  40
0.0
  41
0.0
  0
VERTEX
  8
Top_Mask
  10
1.0571
  20
0.4783
  42
0
  0
VERTEX
  8
Top_Mask
  10
1.0571
  20
0.5059
  42
0
  0
VERTEX
  8
Top_Mask
  10
1.0217
  20
0.5059
  42
0
  0
VERTEX
  8
Top_Mask
  10
1.0217
  20
0.4783
  42
0
  0
VERTEX
  8
Top_Mask
  10
1.0571
  20
0.4783
  42
0
  0
SEQEND
  0
POLYLINE
  8
Top_Mask
  6
CONTINUOUS
  66
1
  70
0
  40
0.0
  41
0.0
  0
VERTEX
  8
Top_Mask
  10
0.7382
  20
0.4744
  42
0
  0
VERTEX
  8
Top_Mask
  10
0.7657
  20
0.4744
  42
0
  0
VERTEX
  8
Top_Mask
  10
0.7657
  20
0.5098
  42
0
  0
VERTEX
  8
Top_Mask
  10
0.7382
  20
0.5098
  42
0
  0
VERTEX
  8
Top_Mask
  10
0.7382
  20
0.4744
  42
0
  0
SEQEND
  0
POLYLINE
  8
Top_Mask
  6
CONTINUOUS
  66
1
  70
0
  40
0.0
  41
0.0
  0
VERTEX
  8
Top_Mask
  10
0.687
  20
0.4744
  42
0
  0
VERTEX
  8
Top_Mask
  10
0.7146
  20
0.4744
  42
0
  0
VERTEX
  8
Top_Mask
  10
0.7146
  20
0.5098
  42
0
  0
VERTEX
  8
Top_Mask
  10
0.687
  20
0.5098
  42
0
  0
VERTEX
  8
Top_Mask
  10
0.687
  20
0.4744
  42
0
  0
SEQEND
  0
POLYLINE
  8
Top_Mask
  6
CONTINUOUS
  66
1
  70
0
  40
0.0
  41
0.0
  0
VERTEX
  8
Top_Mask
  10
0.687
  20
0.2402
  42
0
  0
VERTEX
  8
Top_Mask
  10
0.687
  20
0.2795
  42
0
  0
VERTEX
  8
Top_Mask
  10
0.6516
  20
0.2795
  42
0
  0
VERTEX
  8
Top_Mask
  10
0.6516
  20
0.2402
  42
0
  0
VERTEX
  8
Top_Mask
  10
0.687
  20
0.2402
  42
0
  0
SEQEND
  0
POLYLINE
  8
Top_Mask
  6
CONTINUOUS
  66
1
  70
0
  40
0.0
  41
0.0
  0
VERTEX
  8
Top_Mask
  10
0.8169
  20
0.2047
  42
0
  0
VERTEX
  8
Top_Mask
  10
0.8169
  20
0.248
  42
0
  0
VERTEX
  8
Top_Mask
  10
0.7815
  20
0.248
  42
0
  0
VERTEX
  8
Top_Mask
  10
0.7815
  20
0.2047
  42
0
  0
VERTEX
  8
Top_Mask
  10
0.8169
  20
0.2047
  42
0
  0
SEQEND
  0
POLYLINE
  8
Top_Mask
  6
CONTINUOUS
  66
1
  70
0
  40
0.0
  41
0.0
  0
VERTEX
  8
Top_Mask
  10
0.687
  20
0.1732
  42
0
  0
VERTEX
  8
Top_Mask
  10
0.687
  20
0.2126
  42
0
  0
VERTEX
  8
Top_Mask
  10
0.6516
  20
0.2126
  42
0
  0
VERTEX
  8
Top_Mask
  10
0.6516
  20
0.1732
  42
0
  0
VERTEX
  8
Top_Mask
  10
0.687
  20
0.1732
  42
0
  0
SEQEND
  0
POLYLINE
  8
Top_Mask
  6
CONTINUOUS
  66
1
  70
0
  40
0.0
  41
0.0
  0
VERTEX
  8
Top_Mask
  10
0.6673
  20
0.7795
  42
0
  0
VERTEX
  8
Top_Mask
  10
0.6673
  20
0.8189
  42
0
  0
VERTEX
  8
Top_Mask
  10
0.6319
  20
0.8189
  42
0
  0
VERTEX
  8
Top_Mask
  10
0.6319
  20
0.7795
  42
0
  0
VERTEX
  8
Top_Mask
  10
0.6673
  20
0.7795
  42
0
  0
SEQEND
  0
POLYLINE
  8
Top_Mask
  6
CONTINUOUS
  66
1
  70
0
  40
0.0
  41
0.0
  0
VERTEX
  8
Top_Mask
  10
0.7972
  20
0.7441
  42
0
  0
VERTEX
  8
Top_Mask
  10
0.7972
  20
0.7874
  42
0
  0
VERTEX
  8
Top_Mask
  10
0.7618
  20
0.7874
  42
0
  0
VERTEX
  8
Top_Mask
  10
0.7618
  20
0.7441
  42
0
  0
VERTEX
  8
Top_Mask
  10
0.7972
  20
0.7441
  42
0
  0
SEQEND
  0
POLYLINE
  8
Top_Mask
  6
CONTINUOUS
  66
1
  70
0
  40
0.0
  41
0.0
  0
VERTEX
  8
Top_Mask
  10
0.6673
  20
0.7126
  42
0
  0
VERTEX
  8
Top_Mask
  10
0.6673
  20
0.752
  42
0
  0
VERTEX
  8
Top_Mask
  10
0.6319
  20
0.752
  42
0
  0
VERTEX
  8
Top_Mask
  10
0.6319
  20
0.7126
  42
0
  0
VERTEX
  8
Top_Mask
  10
0.6673
  20
0.7126
  42
0
  0
SEQEND
  0
POLYLINE
  8
Top_Mask
  6
CONTINUOUS
  66
1
  70
0
  40
0.0
  41
0.0
  0
VERTEX
  8
Top_Mask
  10
0.3427
  20
0.551
  42
0
  0
VERTEX
  8
Top_Mask
  10
0.3427
  20
0.575
  42
0
  0
VERTEX
  8
Top_Mask
  10
0.2557
  20
0.575
  42
0
  0
VERTEX
  8
Top_Mask
  10
0.2557
  20
0.551
  42
0
  0
VERTEX
  8
Top_Mask
  10
0.3427
  20
0.551
  42
0
  0
SEQEND
  0
POLYLINE
  8
Top_Mask
  6
CONTINUOUS
  66
1
  70
0
  40
0.0
  41
0.0
  0
VERTEX
  8
Top_Mask
  10
0.3427
  20
0.501
  42
0
  0
VERTEX
  8
Top_Mask
  10
0.3427
  20
0.525
  42
0
  0
VERTEX
  8
Top_Mask
  10
0.2557
  20
0.525
  42
0
  0
VERTEX
  8
Top_Mask
  10
0.2557
  20
0.501
  42
0
  0
VERTEX
  8
Top_Mask
  10
0.3427
  20
0.501
  42
0
  0
SEQEND
  0
POLYLINE
  8
Top_Mask
  6
CONTINUOUS
  66
1
  70
0
  40
0.0
  41
0.0
  0
VERTEX
  8
Top_Mask
  10
0.3427
  20
0.451
  42
0
  0
VERTEX
  8
Top_Mask
  10
0.3427
  20
0.475
  42
0
  0
VERTEX
  8
Top_Mask
  10
0.2557
  20
0.475
  42
0
  0
VERTEX
  8
Top_Mask
  10
0.2557
  20
0.451
  42
0
  0
VERTEX
  8
Top_Mask
  10
0.3427
  20
0.451
  42
0
  0
SEQEND
  0
POLYLINE
  8
Top_Mask
  6
CONTINUOUS
  66
1
  70
0
  40
0.0
  41
0.0
  0
VERTEX
  8
Top_Mask
  10
0.3427
  20
0.401
  42
0
  0
VERTEX
  8
Top_Mask
  10
0.3427
  20
0.425
  42
0
  0
VERTEX
  8
Top_Mask
  10
0.2557
  20
0.425
  42
0
  0
VERTEX
  8
Top_Mask
  10
0.2557
  20
0.401
  42
0
  0
VERTEX
  8
Top_Mask
  10
0.3427
  20
0.401
  42
0
  0
SEQEND
  0
POLYLINE
  8
Top_Mask
  6
CONTINUOUS
  66
1
  70
0
  40
0.0
  41
0.0
  0
VERTEX
  8
Top_Mask
  10
0.5487
  20
0.401
  42
0
  0
VERTEX
  8
Top_Mask
  10
0.5487
  20
0.425
  42
0
  0
VERTEX
  8
Top_Mask
  10
0.4617
  20
0.425
  42
0
  0
VERTEX
  8
Top_Mask
  10
0.4617
  20
0.401
  42
0
  0
VERTEX
  8
Top_Mask
  10
0.5487
  20
0.401
  42
0
  0
SEQEND
  0
POLYLINE
  8
Top_Mask
  6
CONTINUOUS
  66
1
  70
0
  40
0.0
  41
0.0
  0
VERTEX
  8
Top_Mask
  10
0.5487
  20
0.451
  42
0
  0
VERTEX
  8
Top_Mask
  10
0.5487
  20
0.475
  42
0
  0
VERTEX
  8
Top_Mask
  10
0.4617
  20
0.475
  42
0
  0
VERTEX
  8
Top_Mask
  10
0.4617
  20
0.451
  42
0
  0
VERTEX
  8
Top_Mask
  10
0.5487
  20
0.451
  42
0
  0
SEQEND
  0
POLYLINE
  8
Top_Mask
  6
CONTINUOUS
  66
1
  70
0
  40
0.0
  41
0.0
  0
VERTEX
  8
Top_Mask
  10
0.5487
  20
0.501
  42
0
  0
VERTEX
  8
Top_Mask
  10
0.5487
  20
0.525
  42
0
  0
VERTEX
  8
Top_Mask
  10
0.4617
  20
0.525
  42
0
  0
VERTEX
  8
Top_Mask
  10
0.4617
  20
0.501
  42
0
  0
VERTEX
  8
Top_Mask
  10
0.5487
  20
0.501
  42
0
  0
SEQEND
  0
POLYLINE
  8
Top_Mask
  6
CONTINUOUS
  66
1
  70
0
  40
0.0
  41
0.0
  0
VERTEX
  8
Top_Mask
  10
0.5487
  20
0.551
  42
0
  0
VERTEX
  8
Top_Mask
  10
0.5487
  20
0.575
  42
0
  0
VERTEX
  8
Top_Mask
  10
0.4617
  20
0.575
  42
0
  0
VERTEX
  8
Top_Mask
  10
0.4617
  20
0.551
  42
0
  0
VERTEX
  8
Top_Mask
  10
0.5487
  20
0.551
  42
0
  0
SEQEND
  0
POLYLINE
  8
Top_Mask
  6
CONTINUOUS
  66
1
  70
0
  40
0.0
  41
0.0
  0
VERTEX
  8
Top_Mask
  10
0.9537
  20
0.5354
  42
0
  0
VERTEX
  8
Top_Mask
  10
0.9754
  20
0.5354
  42
0
  0
VERTEX
  8
Top_Mask
  10
0.9754
  20
0.5827
  42
0
  0
VERTEX
  8
Top_Mask
  10
0.9537
  20
0.5827
  42
0
  0
VERTEX
  8
Top_Mask
  10
0.9537
  20
0.5354
  42
0
  0
SEQEND
  0
POLYLINE
  8
Top_Mask
  6
CONTINUOUS
  66
1
  70
0
  40
0.0
  41
0.0
  0
VERTEX
  8
Top_Mask
  10
0.9163
  20
0.5354
  42
0
  0
VERTEX
  8
Top_Mask
  10
0.938
  20
0.5354
  42
0
  0
VERTEX
  8
Top_Mask
  10
0.938
  20
0.5827
  42
0
  0
VERTEX
  8
Top_Mask
  10
0.9163
  20
0.5827
  42
0
  0
VERTEX
  8
Top_Mask
  10
0.9163
  20
0.5354
  42
0
  0
SEQEND
  0
POLYLINE
  8
Top_Mask
  6
CONTINUOUS
  66
1
  70
0
  40
0.0
  41
0.0
  0
VERTEX
  8
Top_Mask
  10
0.8789
  20
0.5354
  42
0
  0
VERTEX
  8
Top_Mask
  10
0.9006
  20
0.5354
  42
0
  0
VERTEX
  8
Top_Mask
  10
0.9006
  20
0.5827
  42
0
  0
VERTEX
  8
Top_Mask
  10
0.8789
  20
0.5827
  42
0
  0
VERTEX
  8
Top_Mask
  10
0.8789
  20
0.5354
  42
0
  0
SEQEND
  0
POLYLINE
  8
Top_Mask
  6
CONTINUOUS
  66
1
  70
0
  40
0.0
  41
0.0
  0
VERTEX
  8
Top_Mask
  10
0.8789
  20
0.4331
  42
0
  0
VERTEX
  8
Top_Mask
  10
0.9006
  20
0.4331
  42
0
  0
VERTEX
  8
Top_Mask
  10
0.9006
  20
0.4803
  42
0
  0
VERTEX
  8
Top_Mask
  10
0.8789
  20
0.4803
  42
0
  0
VERTEX
  8
Top_Mask
  10
0.8789
  20
0.4331
  42
0
  0
SEQEND
  0
POLYLINE
  8
Top_Mask
  6
CONTINUOUS
  66
1
  70
0
  40
0.0
  41
0.0
  0
VERTEX
  8
Top_Mask
  10
0.9537
  20
0.4331
  42
0
  0
VERTEX
  8
Top_Mask
  10
0.9754
  20
0.4331
  42
0
  0
VERTEX
  8
Top_Mask
  10
0.9754
  20
0.4803
  42
0
  0
VERTEX
  8
Top_Mask
  10
0.9537
  20
0.4803
  42
0
  0
VERTEX
  8
Top_Mask
  10
0.9537
  20
0.4331
  42
0
  0
SEQEND
  0
POLYLINE
  8
Top_Mask
  6
CONTINUOUS
  66
1
  70
0
  40
0.037
  41
0.037
  0
VERTEX
  8
Top_Mask
  10
1.2744
  20
0.4898
  42
1
  0
VERTEX
  8
Top_Mask
  10
1.2374
  20
0.4898
  42
1
  0
VERTEX
  8
Top_Mask
  10
1.2744
  20
0.4898
  42
1
  0
SEQEND
  0
POLYLINE
  8
Top_Mask
  6
CONTINUOUS
  66
1
  70
0
  40
0.037
  41
0.037
  0
VERTEX
  8
Top_Mask
  10
1.2374
  20
0.4898
  42
1
  0
VERTEX
  8
Top_Mask
  10
1.2744
  20
0.4898
  42
1
  0
VERTEX
  8
Top_Mask
  10
1.2374
  20
0.4898
  42
1
  0
SEQEND
  0
POLYLINE
  8
Top_Mask
  6
CONTINUOUS
  66
1
  70
0
  40
0.037
  41
0.037
  0
VERTEX
  8
Top_Mask
  10
1.2744
  20
0.5898
  42
1
  0
VERTEX
  8
Top_Mask
  10
1.2374
  20
0.5898
  42
1
  0
VERTEX
  8
Top_Mask
  10
1.2744
  20
0.5898
  42
1
  0
SEQEND
  0
POLYLINE
  8
Top_Mask
  6
CONTINUOUS
  66
1
  70
0
  40
0.037
  41
0.037
  0
VERTEX
  8
Top_Mask
  10
1.2374
  20
0.5898
  42
1
  0
VERTEX
  8
Top_Mask
  10
1.2744
  20
0.5898
  42
1
  0
VERTEX
  8
Top_Mask
  10
1.2374
  20
0.5898
  42
1
  0
SEQEND
  0
POLYLINE
  8
Top_Paste
  6
CONTINUOUS
  66
1
  70
0
  40
0.0
  41
0.0
  0
VERTEX
  8
Top_Paste
  10
1.1201
  20
0.5295
  42
0
  0
VERTEX
  8
Top_Paste
  10
1.1201
  20
0.5571
  42
0
  0
VERTEX
  8
Top_Paste
  10
1.0846
  20
0.5571
  42
0
  0
VERTEX
  8
Top_Paste
  10
1.0846
  20
0.5295
  42
0
  0
VERTEX
  8
Top_Paste
  10
1.1201
  20
0.5295
  42
0
  0
SEQEND
  0
POLYLINE
  8
Top_Paste
  6
CONTINUOUS
  66
1
  70
0
  40
0.0
  41
0.0
  0
VERTEX
  8
Top_Paste
  10
1.1201
  20
0.4783
  42
0
  0
VERTEX
  8
Top_Paste
  10
1.1201
  20
0.5059
  42
0
  0
VERTEX
  8
Top_Paste
  10
1.0846
  20
0.5059
  42
0
  0
VERTEX
  8
Top_Paste
  10
1.0846
  20
0.4783
  42
0
  0
VERTEX
  8
Top_Paste
  10
1.1201
  20
0.4783
  42
0
  0
SEQEND
  0
POLYLINE
  8
Top_Paste
  6
CONTINUOUS
  66
1
  70
0
  40
0.0
  41
0.0
  0
VERTEX
  8
Top_Paste
  10
0.9232
  20
0.7815
  42
0
  0
VERTEX
  8
Top_Paste
  10
0.8957
  20
0.7815
  42
0
  0
VERTEX
  8
Top_Paste
  10
0.8957
  20
0.7461
  42
0
  0
VERTEX
  8
Top_Paste
  10
0.9232
  20
0.7461
  42
0
  0
VERTEX
  8
Top_Paste
  10
0.9232
  20
0.7815
  42
0
  0
SEQEND
  0
POLYLINE
  8
Top_Paste
  6
CONTINUOUS
  66
1
  70
0
  40
0.0
  41
0.0
  0
VERTEX
  8
Top_Paste
  10
0.9744
  20
0.7815
  42
0
  0
VERTEX
  8
Top_Paste
  10
0.9469
  20
0.7815
  42
0
  0
VERTEX
  8
Top_Paste
  10
0.9469
  20
0.7461
  42
0
  0
VERTEX
  8
Top_Paste
  10
0.9744
  20
0.7461
  42
0
  0
VERTEX
  8
Top_Paste
  10
0.9744
  20
0.7815
  42
0
  0
SEQEND
  0
POLYLINE
  8
Top_Paste
  6
CONTINUOUS
  66
1
  70
0
  40
0.0
  41
0.0
  0
VERTEX
  8
Top_Paste
  10
0.9429
  20
0.2421
  42
0
  0
VERTEX
  8
Top_Paste
  10
0.9154
  20
0.2421
  42
0
  0
VERTEX
  8
Top_Paste
  10
0.9154
  20
0.2067
  42
0
  0
VERTEX
  8
Top_Paste
  10
0.9429
  20
0.2067
  42
0
  0
VERTEX
  8
Top_Paste
  10
0.9429
  20
0.2421
  42
0
  0
SEQEND
  0
POLYLINE
  8
Top_Paste
  6
CONTINUOUS
  66
1
  70
0
  40
0.0
  41
0.0
  0
VERTEX
  8
Top_Paste
  10
0.9941
  20
0.2421
  42
0
  0
VERTEX
  8
Top_Paste
  10
0.9665
  20
0.2421
  42
0
  0
VERTEX
  8
Top_Paste
  10
0.9665
  20
0.2067
  42
0
  0
VERTEX
  8
Top_Paste
  10
0.9941
  20
0.2067
  42
0
  0
VERTEX
  8
Top_Paste
  10
0.9941
  20
0.2421
  42
0
  0
SEQEND
  0
POLYLINE
  8
Top_Paste
  6
CONTINUOUS
  66
1
  70
0
  40
0.0
  41
0.0
  0
VERTEX
  8
Top_Paste
  10
0.4705
  20
0.6791
  42
0
  0
VERTEX
  8
Top_Paste
  10
0.4429
  20
0.6791
  42
0
  0
VERTEX
  8
Top_Paste
  10
0.4429
  20
0.6437
  42
0
  0
VERTEX
  8
Top_Paste
  10
0.4705
  20
0.6437
  42
0
  0
VERTEX
  8
Top_Paste
  10
0.4705
  20
0.6791
  42
0
  0
SEQEND
  0
POLYLINE
  8
Top_Paste
  6
CONTINUOUS
  66
1
  70
0
  40
0.0
  41
0.0
  0
VERTEX
  8
Top_Paste
  10
0.5217
  20
0.6791
  42
0
  0
VERTEX
  8
Top_Paste
  10
0.4941
  20
0.6791
  42
0
  0
VERTEX
  8
Top_Paste
  10
0.4941
  20
0.6437
  42
0
  0
VERTEX
  8
Top_Paste
  10
0.5217
  20
0.6437
  42
0
  0
VERTEX
  8
Top_Paste
  10
0.5217
  20
0.6791
  42
0
  0
SEQEND
  0
POLYLINE
  8
Top_Paste
  6
CONTINUOUS
  66
1
  70
0
  40
0.0
  41
0.0
  0
VERTEX
  8
Top_Paste
  10
0.4744
  20
0.3287
  42
0
  0
VERTEX
  8
Top_Paste
  10
0.4469
  20
0.3287
  42
0
  0
VERTEX
  8
Top_Paste
  10
0.4469
  20
0.2933
  42
0
  0
VERTEX
  8
Top_Paste
  10
0.4744
  20
0.2933
  42
0
  0
VERTEX
  8
Top_Paste
  10
0.4744
  20
0.3287
  42
0
  0
SEQEND
  0
POLYLINE
  8
Top_Paste
  6
CONTINUOUS
  66
1
  70
0
  40
0.0
  41
0.0
  0
VERTEX
  8
Top_Paste
  10
0.5256
  20
0.3287
  42
0
  0
VERTEX
  8
Top_Paste
  10
0.498
  20
0.3287
  42
0
  0
VERTEX
  8
Top_Paste
  10
0.498
  20
0.2933
  42
0
  0
VERTEX
  8
Top_Paste
  10
0.5256
  20
0.2933
  42
0
  0
VERTEX
  8
Top_Paste
  10
0.5256
  20
0.3287
  42
0
  0
SEQEND
  0
POLYLINE
  8
Top_Paste
  6
CONTINUOUS
  66
1
  70
0
  40
0.0
  41
0.0
  0
VERTEX
  8
Top_Paste
  10
1.0571
  20
0.5295
  42
0
  0
VERTEX
  8
Top_Paste
  10
1.0571
  20
0.5571
  42
0
  0
VERTEX
  8
Top_Paste
  10
1.0217
  20
0.5571
  42
0
  0
VERTEX
  8
Top_Paste
  10
1.0217
  20
0.5295
  42
0
  0
VERTEX
  8
Top_Paste
  10
1.0571
  20
0.5295
  42
0
  0
SEQEND
  0
POLYLINE
  8
Top_Paste
  6
CONTINUOUS
  66
1
  70
0
  40
0.0
  41
0.0
  0
VERTEX
  8
Top_Paste
  10
1.0571
  20
0.4783
  42
0
  0
VERTEX
  8
Top_Paste
  10
1.0571
  20
0.5059
  42
0
  0
VERTEX
  8
Top_Paste
  10
1.0217
  20
0.5059
  42
0
  0
VERTEX
  8
Top_Paste
  10
1.0217
  20
0.4783
  42
0
  0
VERTEX
  8
Top_Paste
  10
1.0571
  20
0.4783
  42
0
  0
SEQEND
  0
POLYLINE
  8
Top_Paste
  6
CONTINUOUS
  66
1
  70
0
  40
0.0
  41
0.0
  0
VERTEX
  8
Top_Paste
  10
0.7382
  20
0.4744
  42
0
  0
VERTEX
  8
Top_Paste
  10
0.7657
  20
0.4744
  42
0
  0
VERTEX
  8
Top_Paste
  10
0.7657
  20
0.5098
  42
0
  0
VERTEX
  8
Top_Paste
  10
0.7382
  20
0.5098
  42
0
  0
VERTEX
  8
Top_Paste
  10
0.7382
  20
0.4744
  42
0
  0
SEQEND
  0
POLYLINE
  8
Top_Paste
  6
CONTINUOUS
  66
1
  70
0
  40
0.0
  41
0.0
  0
VERTEX
  8
Top_Paste
  10
0.687
  20
0.4744
  42
0
  0
VERTEX
  8
Top_Paste
  10
0.7146
  20
0.4744
  42
0
  0
VERTEX
  8
Top_Paste
  10
0.7146
  20
0.5098
  42
0
  0
VERTEX
  8
Top_Paste
  10
0.687
  20
0.5098
  42
0
  0
VERTEX
  8
Top_Paste
  10
0.687
  20
0.4744
  42
0
  0
SEQEND
  0
POLYLINE
  8
Top_Paste
  6
CONTINUOUS
  66
1
  70
0
  40
0.0
  41
0.0
  0
VERTEX
  8
Top_Paste
  10
0.687
  20
0.2402
  42
0
  0
VERTEX
  8
Top_Paste
  10
0.687
  20
0.2795
  42
0
  0
VERTEX
  8
Top_Paste
  10
0.6516
  20
0.2795
  42
0
  0
VERTEX
  8
Top_Paste
  10
0.6516
  20
0.2402
  42
0
  0
VERTEX
  8
Top_Paste
  10
0.687
  20
0.2402
  42
0
  0
SEQEND
  0
POLYLINE
  8
Top_Paste
  6
CONTINUOUS
  66
1
  70
0
  40
0.0
  41
0.0
  0
VERTEX
  8
Top_Paste
  10
0.8169
  20
0.2047
  42
0
  0
VERTEX
  8
Top_Paste
  10
0.8169
  20
0.248
  42
0
  0
VERTEX
  8
Top_Paste
  10
0.7815
  20
0.248
  42
0
  0
VERTEX
  8
Top_Paste
  10
0.7815
  20
0.2047
  42
0
  0
VERTEX
  8
Top_Paste
  10
0.8169
  20
0.2047
  42
0
  0
SEQEND
  0
POLYLINE
  8
Top_Paste
  6
CONTINUOUS
  66
1
  70
0
  40
0.0
  41
0.0
  0
VERTEX
  8
Top_Paste
  10
0.687
  20
0.1732
  42
0
  0
VERTEX
  8
Top_Paste
  10
0.687
  20
0.2126
  42
0
  0
VERTEX
  8
Top_Paste
  10
0.6516
  20
0.2126
  42
0
  0
VERTEX
  8
Top_Paste
  10
0.6516
  20
0.1732
  42
0
  0
VERTEX
  8
Top_Paste
  10
0.687
  20
0.1732
  42
0
  0
SEQEND
  0
POLYLINE
  8
Top_Paste
  6
CONTINUOUS
  66
1
  70
0
  40
0.0
  41
0.0
  0
VERTEX
  8
Top_Paste
  10
0.6673
  20
0.7795
  42
0
  0
VERTEX
  8
Top_Paste
  10
0.6673
  20
0.8189
  42
0
  0
VERTEX
  8
Top_Paste
  10
0.6319
  20
0.8189
  42
0
  0
VERTEX
  8
Top_Paste
  10
0.6319
  20
0.7795
  42
0
  0
VERTEX
  8
Top_Paste
  10
0.6673
  20
0.7795
  42
0
  0
SEQEND
  0
POLYLINE
  8
Top_Paste
  6
CONTINUOUS
  66
1
  70
0
  40
0.0
  41
0.0
  0
VERTEX
  8
Top_Paste
  10
0.7972
  20
0.7441
  42
0
  0
VERTEX
  8
Top_Paste
  10
0.7972
  20
0.7874
  42
0
  0
VERTEX
  8
Top_Paste
  10
0.7618
  20
0.7874
  42
0
  0
VERTEX
  8
Top_Paste
  10
0.7618
  20
0.7441
  42
0
  0
VERTEX
  8
Top_Paste
  10
0.7972
  20
0.7441
  42
0
  0
SEQEND
  0
POLYLINE
  8
Top_Paste
  6
CONTINUOUS
  66
1
  70
0
  40
0.0
  41
0.0
  0
VERTEX
  8
Top_Paste
  10
0.6673
  20
0.7126
  42
0
  0
VERTEX
  8
Top_Paste
  10
0.6673
  20
0.752
  42
0
  0
VERTEX
  8
Top_Paste
  10
0.6319
  20
0.752
  42
0
  0
VERTEX
  8
Top_Paste
  10
0.6319
  20
0.7126
  42
0
  0
VERTEX
  8
Top_Paste
  10
0.6673
  20
0.7126
  42
0
  0
SEQEND
  0
POLYLINE
  8
Top_Paste
  6
CONTINUOUS
  66
1
  70
0
  40
0.0
  41
0.0
  0
VERTEX
  8
Top_Paste
  10
0.3427
  20
0.551
  42
0
  0
VERTEX
  8
Top_Paste
  10
0.3427
  20
0.575
  42
0
  0
VERTEX
  8
Top_Paste
  10
0.2557
  20
0.575
  42
0
  0
VERTEX
  8
Top_Paste
  10
0.2557
  20
0.551
  42
0
  0
VERTEX
  8
Top_Paste
  10
0.3427
  20
0.551
  42
0
  0
SEQEND
  0
POLYLINE
  8
Top_Paste
  6
CONTINUOUS
  66
1
  70
0
  40
0.0
  41
0.0
  0
VERTEX
  8
Top_Paste
  10
0.3427
  20
0.501
  42
0
  0
VERTEX
  8
Top_Paste
  10
0.3427
  20
0.525
  42
0
  0
VERTEX
  8
Top_Paste
  10
0.2557
  20
0.525
  42
0
  0
VERTEX
  8
Top_Paste
  10
0.2557
  20
0.501
  42
0
  0
VERTEX
  8
Top_Paste
  10
0.3427
  20
0.501
  42
0
  0
SEQEND
  0
POLYLINE
  8
Top_Paste
  6
CONTINUOUS
  66
1
  70
0
  40
0.0
  41
0.0
  0
VERTEX
  8
Top_Paste
  10
0.3427
  20
0.451
  42
0
  0
VERTEX
  8
Top_Paste
  10
0.3427
  20
0.475
  42
0
  0
VERTEX
  8
Top_Paste
  10
0.2557
  20
0.475
  42
0
  0
VERTEX
  8
Top_Paste
  10
0.2557
  20
0.451
  42
0
  0
VERTEX
  8
Top_Paste
  10
0.3427
  20
0.451
  42
0
  0
SEQEND
  0
POLYLINE
  8
Top_Paste
  6
CONTINUOUS
  66
1
  70
0
  40
0.0
  41
0.0
  0
VERTEX
  8
Top_Paste
  10
0.3427
  20
0.401
  42
0
  0
VERTEX
  8
Top_Paste
  10
0.3427
  20
0.425
  42
0
  0
VERTEX
  8
Top_Paste
  10
0.2557
  20
0.425
  42
0
  0
VERTEX
  8
Top_Paste
  10
0.2557
  20
0.401
  42
0
  0
VERTEX
  8
Top_Paste
  10
0.3427
  20
0.401
  42
0
  0
SEQEND
  0
POLYLINE
  8
Top_Paste
  6
CONTINUOUS
  66
1
  70
0
  40
0.0
  41
0.0
  0
VERTEX
  8
Top_Paste
  10
0.5487
  20
0.401
  42
0
  0
VERTEX
  8
Top_Paste
  10
0.5487
  20
0.425
  42
0
  0
VERTEX
  8
Top_Paste
  10
0.4617
  20
0.425
  42
0
  0
VERTEX
  8
Top_Paste
  10
0.4617
  20
0.401
  42
0
  0
VERTEX
  8
Top_Paste
  10
0.5487
  20
0.401
  42
0
  0
SEQEND
  0
POLYLINE
  8
Top_Paste
  6
CONTINUOUS
  66
1
  70
0
  40
0.0
  41
0.0
  0
VERTEX
  8
Top_Paste
  10
0.5487
  20
0.451
  42
0
  0
VERTEX
  8
Top_Paste
  10
0.5487
  20
0.475
  42
0
  0
VERTEX
  8
Top_Paste
  10
0.4617
  20
0.475
  42
0
  0
VERTEX
  8
Top_Paste
  10
0.4617
  20
0.451
  42
0
  0
VERTEX
  8
Top_Paste
  10
0.5487
  20
0.451
  42
0
  0
SEQEND
  0
POLYLINE
  8
Top_Paste
  6
CONTINUOUS
  66
1
  70
0
  40
0.0
  41
0.0
  0
VERTEX
  8
Top_Paste
  10
0.5487
  20
0.501
  42
0
  0
VERTEX
  8
Top_Paste
  10
0.5487
  20
0.525
  42
0
  0
VERTEX
  8
Top_Paste
  10
0.4617
  20
0.525
  42
0
  0
VERTEX
  8
Top_Paste
  10
0.4617
  20
0.501
  42
0
  0
VERTEX
  8
Top_Paste
  10
0.5487
  20
0.501
  42
0
  0
SEQEND
  0
POLYLINE
  8
Top_Paste
  6
CONTINUOUS
  66
1
  70
0
  40
0.0
  41
0.0
  0
VERTEX
  8
Top_Paste
  10
0.5487
  20
0.551
  42
0
  0
VERTEX
  8
Top_Paste
  10
0.5487
  20
0.575
  42
0
  0
VERTEX
  8
Top_Paste
  10
0.4617
  20
0.575
  42
0
  0
VERTEX
  8
Top_Paste
  10
0.4617
  20
0.551
  42
0
  0
VERTEX
  8
Top_Paste
  10
0.5487
  20
0.551
  42
0
  0
SEQEND
  0
POLYLINE
  8
Top_Paste
  6
CONTINUOUS
  66
1
  70
0
  40
0.0
  41
0.0
  0
VERTEX
  8
Top_Paste
  10
0.9537
  20
0.5354
  42
0
  0
VERTEX
  8
Top_Paste
  10
0.9754
  20
0.5354
  42
0
  0
VERTEX
  8
Top_Paste
  10
0.9754
  20
0.5827
  42
0
  0
VERTEX
  8
Top_Paste
  10
0.9537
  20
0.5827
  42
0
  0
VERTEX
  8
Top_Paste
  10
0.9537
  20
0.5354
  42
0
  0
SEQEND
  0
POLYLINE
  8
Top_Paste
  6
CONTINUOUS
  66
1
  70
0
  40
0.0
  41
0.0
  0
VERTEX
  8
Top_Paste
  10
0.9163
  20
0.5354
  42
0
  0
VERTEX
  8
Top_Paste
  10
0.938
  20
0.5354
  42
0
  0
VERTEX
  8
Top_Paste
  10
0.938
  20
0.5827
  42
0
  0
VERTEX
  8
Top_Paste
  10
0.9163
  20
0.5827
  42
0
  0
VERTEX
  8
Top_Paste
  10
0.9163
  20
0.5354
  42
0
  0
SEQEND
  0
POLYLINE
  8
Top_Paste
  6
CONTINUOUS
  66
1
  70
0
  40
0.0
  41
0.0
  0
VERTEX
  8
Top_Paste
  10
0.8789
  20
0.5354
  42
0
  0
VERTEX
  8
Top_Paste
  10
0.9006
  20
0.5354
  42
0
  0
VERTEX
  8
Top_Paste
  10
0.9006
  20
0.5827
  42
0
  0
VERTEX
  8
Top_Paste
  10
0.8789
  20
0.5827
  42
0
  0
VERTEX
  8
Top_Paste
  10
0.8789
  20
0.5354
  42
0
  0
SEQEND
  0
POLYLINE
  8
Top_Paste
  6
CONTINUOUS
  66
1
  70
0
  40
0.0
  41
0.0
  0
VERTEX
  8
Top_Paste
  10
0.8789
  20
0.4331
  42
0
  0
VERTEX
  8
Top_Paste
  10
0.9006
  20
0.4331
  42
0
  0
VERTEX
  8
Top_Paste
  10
0.9006
  20
0.4803
  42
0
  0
VERTEX
  8
Top_Paste
  10
0.8789
  20
0.4803
  42
0
  0
VERTEX
  8
Top_Paste
  10
0.8789
  20
0.4331
  42
0
  0
SEQEND
  0
POLYLINE
  8
Top_Paste
  6
CONTINUOUS
  66
1
  70
0
  40
0.0
  41
0.0
  0
VERTEX
  8
Top_Paste
  10
0.9537
  20
0.4331
  42
0
  0
VERTEX
  8
Top_Paste
  10
0.9754
  20
0.4331
  42
0
  0
VERTEX
  8
Top_Paste
  10
0.9754
  20
0.4803
  42
0
  0
VERTEX
  8
Top_Paste
  10
0.9537
  20
0.4803
  42
0
  0
VERTEX
  8
Top_Paste
  10
0.9537
  20
0.4331
  42
0
  0
SEQEND
  0
POLYLINE
  8
Top
  6
CONTINUOUS
  66
1
  70
0
  40
0.0
  41
0.0
  0
VERTEX
  8
Top
  10
1.1201
  20
0.5295
  42
0
  0
VERTEX
  8
Top
  10
1.1201
  20
0.5571
  42
0
  0
VERTEX
  8
Top
  10
1.0846
  20
0.5571
  42
0
  0
VERTEX
  8
Top
  10
1.0846
  20
0.5295
  42
0
  0
VERTEX
  8
Top
  10
1.1201
  20
0.5295
  42
0
  0
SEQEND
  0
POLYLINE
  8
Top
  6
CONTINUOUS
  66
1
  70
0
  40
0.0
  41
0.0
  0
VERTEX
  8
Top
  10
1.1201
  20
0.4783
  42
0
  0
VERTEX
  8
Top
  10
1.1201
  20
0.5059
  42
0
  0
VERTEX
  8
Top
  10
1.0846
  20
0.5059
  42
0
  0
VERTEX
  8
Top
  10
1.0846
  20
0.4783
  42
0
  0
VERTEX
  8
Top
  10
1.1201
  20
0.4783
  42
0
  0
SEQEND
  0
POLYLINE
  8
Top
  6
CONTINUOUS
  66
1
  70
0
  40
0.0
  41
0.0
  0
VERTEX
  8
Top
  10
0.9232
  20
0.7815
  42
0
  0
VERTEX
  8
Top
  10
0.8957
  20
0.7815
  42
0
  0
VERTEX
  8
Top
  10
0.8957
  20
0.7461
  42
0
  0
VERTEX
  8
Top
  10
0.9232
  20
0.7461
  42
0
  0
VERTEX
  8
Top
  10
0.9232
  20
0.7815
  42
0
  0
SEQEND
  0
POLYLINE
  8
Top
  6
CONTINUOUS
  66
1
  70
0
  40
0.0
  41
0.0
  0
VERTEX
  8
Top
  10
0.9744
  20
0.7815
  42
0
  0
VERTEX
  8
Top
  10
0.9469
  20
0.7815
  42
0
  0
VERTEX
  8
Top
  10
0.9469
  20
0.7461
  42
0
  0
VERTEX
  8
Top
  10
0.9744
  20
0.7461
  42
0
  0
VERTEX
  8
Top
  10
0.9744
  20
0.7815
  42
0
  0
SEQEND
  0
POLYLINE
  8
Top
  6
CONTINUOUS
  66
1
  70
0
  40
0.0
  41
0.0
  0
VERTEX
  8
Top
  10
0.9429
  20
0.2421
  42
0
  0
VERTEX
  8
Top
  10
0.9154
  20
0.2421
  42
0
  0
VERTEX
  8
Top
  10
0.9154
  20
0.2067
  42
0
  0
VERTEX
  8
Top
  10
0.9429
  20
0.2067
  42
0
  0
VERTEX
  8
Top
  10
0.9429
  20
0.2421
  42
0
  0
SEQEND
  0
POLYLINE
  8
Top
  6
CONTINUOUS
  66
1
  70
0
  40
0.0
  41
0.0
  0
VERTEX
  8
Top
  10
0.9941
  20
0.2421
  42
0
  0
VERTEX
  8
Top
  10
0.9665
  20
0.2421
  42
0
  0
VERTEX
  8
Top
  10
0.9665
  20
0.2067
  42
0
  0
VERTEX
  8
Top
  10
0.9941
  20
0.2067
  42
0
  0
VERTEX
  8
Top
  10
0.9941
  20
0.2421
  42
0
  0
SEQEND
  0
POLYLINE
  8
Top
  6
CONTINUOUS
  66
1
  70
0
  40
0.0
  41
0.0
  0
VERTEX
  8
Top
  10
0.4705
  20
0.6791
  42
0
  0
VERTEX
  8
Top
  10
0.4429
  20
0.6791
  42
0
  0
VERTEX
  8
Top
  10
0.4429
  20
0.6437
  42
0
  0
VERTEX
  8
Top
  10
0.4705
  20
0.6437
  42
0
  0
VERTEX
  8
Top
  10
0.4705
  20
0.6791
  42
0
  0
SEQEND
  0
POLYLINE
  8
Top
  6
CONTINUOUS
  66
1
  70
0
  40
0.0
  41
0.0
  0
VERTEX
  8
Top
  10
0.5217
  20
0.6791
  42
0
  0
VERTEX
  8
Top
  10
0.4941
  20
0.6791
  42
0
  0
VERTEX
  8
Top
  10
0.4941
  20
0.6437
  42
0
  0
VERTEX
  8
Top
  10
0.5217
  20
0.6437
  42
0
  0
VERTEX
  8
Top
  10
0.5217
  20
0.6791
  42
0
  0
SEQEND
  0
POLYLINE
  8
Top
  6
CONTINUOUS
  66
1
  70
0
  40
0.0
  41
0.0
  0
VERTEX
  8
Top
  10
0.4744
  20
0.3287
  42
0
  0
VERTEX
  8
Top
  10
0.4469
  20
0.3287
  42
0
  0
VERTEX
  8
Top
  10
0.4469
  20
0.2933
  42
0
  0
VERTEX
  8
Top
  10
0.4744
  20
0.2933
  42
0
  0
VERTEX
  8
Top
  10
0.4744
  20
0.3287
  42
0
  0
SEQEND
  0
POLYLINE
  8
Top
  6
CONTINUOUS
  66
1
  70
0
  40
0.0
  41
0.0
  0
VERTEX
  8
Top
  10
0.5256
  20
0.3287
  42
0
  0
VERTEX
  8
Top
  10
0.498
  20
0.3287
  42
0
  0
VERTEX
  8
Top
  10
0.498
  20
0.2933
  42
0
  0
VERTEX
  8
Top
  10
0.5256
  20
0.2933
  42
0
  0
VERTEX
  8
Top
  10
0.5256
  20
0.3287
  42
0
  0
SEQEND
  0
POLYLINE
  8
Top
  6
CONTINUOUS
  66
1
  70
0
  40
0.0591
  41
0.0591
  0
VERTEX
  8
Top
  10
0.1476
  20
0.8661
  42
1
  0
VERTEX
  8
Top
  10
0.0886
  20
0.8661
  42
1
  0
VERTEX
  8
Top
  10
0.1476
  20
0.8661
  42
1
  0
SEQEND
  0
POLYLINE
  8
Top
  6
CONTINUOUS
  66
1
  70
0
  40
0.0591
  41
0.0591
  0
VERTEX
  8
Top
  10
0.1476
  20
0.1181
  42
1
  0
VERTEX
  8
Top
  10
0.0886
  20
0.1181
  42
1
  0
VERTEX
  8
Top
  10
0.1476
  20
0.1181
  42
1
  0
SEQEND
  0
POLYLINE
  8
Top
  6
CONTINUOUS
  66
1
  70
0
  40
0.037
  41
0.037
  0
VERTEX
  8
Top
  10
1.2744
  20
0.3898
  42
1
  0
VERTEX
  8
Top
  10
1.2374
  20
0.3898
  42
1
  0
VERTEX
  8
Top
  10
1.2744
  20
0.3898
  42
1
  0
SEQEND
  0
POLYLINE
  8
Top
  6
CONTINUOUS
  66
1
  70
0
  40
0.065
  41
0.065
  0
VERTEX
  8
Top
  10
0.1506
  20
0.7008
  42
1
  0
VERTEX
  8
Top
  10
0.0856
  20
0.7008
  42
1
  0
VERTEX
  8
Top
  10
0.1506
  20
0.7008
  42
1
  0
SEQEND
  0
POLYLINE
  8
Top
  6
CONTINUOUS
  66
1
  70
0
  40
0.065
  41
0.065
  0
VERTEX
  8
Top
  10
0.1506
  20
0.2717
  42
1
  0
VERTEX
  8
Top
  10
0.0856
  20
0.2717
  42
1
  0
VERTEX
  8
Top
  10
0.1506
  20
0.2717
  42
1
  0
SEQEND
  0
POLYLINE
  8
Top
  6
CONTINUOUS
  66
1
  70
0
  40
0.037
  41
0.037
  0
VERTEX
  8
Top
  10
0.1366
  20
0.5394
  42
1
  0
VERTEX
  8
Top
  10
0.0996
  20
0.5394
  42
1
  0
VERTEX
  8
Top
  10
0.1366
  20
0.5394
  42
1
  0
SEQEND
  0
POLYLINE
  8
Top
  6
CONTINUOUS
  66
1
  70
0
  40
0.037
  41
0.037
  0
VERTEX
  8
Top
  10
0.1366
  20
0.4331
  42
1
  0
VERTEX
  8
Top
  10
0.0996
  20
0.4331
  42
1
  0
VERTEX
  8
Top
  10
0.1366
  20
0.4331
  42
1
  0
SEQEND
  0
POLYLINE
  8
Top
  6
CONTINUOUS
  66
1
  70
0
  40
0.0
  41
0.0
  0
VERTEX
  8
Top
  10
1.0571
  20
0.5295
  42
0
  0
VERTEX
  8
Top
  10
1.0571
  20
0.5571
  42
0
  0
VERTEX
  8
Top
  10
1.0217
  20
0.5571
  42
0
  0
VERTEX
  8
Top
  10
1.0217
  20
0.5295
  42
0
  0
VERTEX
  8
Top
  10
1.0571
  20
0.5295
  42
0
  0
SEQEND
  0
POLYLINE
  8
Top
  6
CONTINUOUS
  66
1
  70
0
  40
0.0
  41
0.0
  0
VERTEX
  8
Top
  10
1.0571
  20
0.4783
  42
0
  0
VERTEX
  8
Top
  10
1.0571
  20
0.5059
  42
0
  0
VERTEX
  8
Top
  10
1.0217
  20
0.5059
  42
0
  0
VERTEX
  8
Top
  10
1.0217
  20
0.4783
  42
0
  0
VERTEX
  8
Top
  10
1.0571
  20
0.4783
  42
0
  0
SEQEND
  0
POLYLINE
  8
Top
  6
CONTINUOUS
  66
1
  70
0
  40
0.0
  41
0.0
  0
VERTEX
  8
Top
  10
0.7382
  20
0.4744
  42
0
  0
VERTEX
  8
Top
  10
0.7657
  20
0.4744
  42
0
  0
VERTEX
  8
Top
  10
0.7657
  20
0.5098
  42
0
  0
VERTEX
  8
Top
  10
0.7382
  20
0.5098
  42
0
  0
VERTEX
  8
Top
  10
0.7382
  20
0.4744
  42
0
  0
SEQEND
  0
POLYLINE
  8
Top
  6
CONTINUOUS
  66
1
  70
0
  40
0.0
  41
0.0
  0
VERTEX
  8
Top
  10
0.687
  20
0.4744
  42
0
  0
VERTEX
  8
Top
  10
0.7146
  20
0.4744
  42
0
  0
VERTEX
  8
Top
  10
0.7146
  20
0.5098
  42
0
  0
VERTEX
  8
Top
  10
0.687
  20
0.5098
  42
0
  0
VERTEX
  8
Top
  10
0.687
  20
0.4744
  42
0
  0
SEQEND
  0
POLYLINE
  8
Top
  6
CONTINUOUS
  66
1
  70
0
  40
0.0
  41
0.0
  0
VERTEX
  8
Top
  10
0.687
  20
0.2402
  42
0
  0
VERTEX
  8
Top
  10
0.687
  20
0.2795
  42
0
  0
VERTEX
  8
Top
  10
0.6516
  20
0.2795
  42
0
  0
VERTEX
  8
Top
  10
0.6516
  20
0.2402
  42
0
  0
VERTEX
  8
Top
  10
0.687
  20
0.2402
  42
0
  0
SEQEND
  0
POLYLINE
  8
Top
  6
CONTINUOUS
  66
1
  70
0
  40
0.0
  41
0.0
  0
VERTEX
  8
Top
  10
0.8169
  20
0.2047
  42
0
  0
VERTEX
  8
Top
  10
0.8169
  20
0.248
  42
0
  0
VERTEX
  8
Top
  10
0.7815
  20
0.248
  42
0
  0
VERTEX
  8
Top
  10
0.7815
  20
0.2047
  42
0
  0
VERTEX
  8
Top
  10
0.8169
  20
0.2047
  42
0
  0
SEQEND
  0
POLYLINE
  8
Top
  6
CONTINUOUS
  66
1
  70
0
  40
0.0
  41
0.0
  0
VERTEX
  8
Top
  10
0.687
  20
0.1732
  42
0
  0
VERTEX
  8
Top
  10
0.687
  20
0.2126
  42
0
  0
VERTEX
  8
Top
  10
0.6516
  20
0.2126
  42
0
  0
VERTEX
  8
Top
  10
0.6516
  20
0.1732
  42
0
  0
VERTEX
  8
Top
  10
0.687
  20
0.1732
  42
0
  0
SEQEND
  0
POLYLINE
  8
Top
  6
CONTINUOUS
  66
1
  70
0
  40
0.0
  41
0.0
  0
VERTEX
  8
Top
  10
0.6673
  20
0.7795
  42
0
  0
VERTEX
  8
Top
  10
0.6673
  20
0.8189
  42
0
  0
VERTEX
  8
Top
  10
0.6319
  20
0.8189
  42
0
  0
VERTEX
  8
Top
  10
0.6319
  20
0.7795
  42
0
  0
VERTEX
  8
Top
  10
0.6673
  20
0.7795
  42
0
  0
SEQEND
  0
POLYLINE
  8
Top
  6
CONTINUOUS
  66
1
  70
0
  40
0.0
  41
0.0
  0
VERTEX
  8
Top
  10
0.7972
  20
0.7441
  42
0
  0
VERTEX
  8
Top
  10
0.7972
  20
0.7874
  42
0
  0
VERTEX
  8
Top
  10
0.7618
  20
0.7874
  42
0
  0
VERTEX
  8
Top
  10
0.7618
  20
0.7441
  42
0
  0
VERTEX
  8
Top
  10
0.7972
  20
0.7441
  42
0
  0
SEQEND
  0
POLYLINE
  8
Top
  6
CONTINUOUS
  66
1
  70
0
  40
0.0
  41
0.0
  0
VERTEX
  8
Top
  10
0.6673
  20
0.7126
  42
0
  0
VERTEX
  8
Top
  10
0.6673
  20
0.752
  42
0
  0
VERTEX
  8
Top
  10
0.6319
  20
0.752
  42
0
  0
VERTEX
  8
Top
  10
0.6319
  20
0.7126
  42
0
  0
VERTEX
  8
Top
  10
0.6673
  20
0.7126
  42
0
  0
SEQEND
  0
POLYLINE
  8
Top
  6
CONTINUOUS
  66
1
  70
0
  40
0.0
  41
0.0
  0
VERTEX
  8
Top
  10
0.3427
  20
0.551
  42
0
  0
VERTEX
  8
Top
  10
0.3427
  20
0.575
  42
0
  0
VERTEX
  8
Top
  10
0.2557
  20
0.575
  42
0
  0
VERTEX
  8
Top
  10
0.2557
  20
0.551
  42
0
  0
VERTEX
  8
Top
  10
0.3427
  20
0.551
  42
0
  0
SEQEND
  0
POLYLINE
  8
Top
  6
CONTINUOUS
  66
1
  70
0
  40
0.0
  41
0.0
  0
VERTEX
  8
Top
  10
0.3427
  20
0.501
  42
0
  0
VERTEX
  8
Top
  10
0.3427
  20
0.525
  42
0
  0
VERTEX
  8
Top
  10
0.2557
  20
0.525
  42
0
  0
VERTEX
  8
Top
  10
0.2557
  20
0.501
  42
0
  0
VERTEX
  8
Top
  10
0.3427
  20
0.501
  42
0
  0
SEQEND
  0
POLYLINE
  8
Top
  6
CONTINUOUS
  66
1
  70
0
  40
0.0
  41
0.0
  0
VERTEX
  8
Top
  10
0.3427
  20
0.451
  42
0
  0
VERTEX
  8
Top
  10
0.3427
  20
0.475
  42
0
  0
VERTEX
  8
Top
  10
0.2557
  20
0.475
  42
0
  0
VERTEX
  8
Top
  10
0.2557
  20
0.451
  42
0
  0
VERTEX
  8
Top
  10
0.3427
  20
0.451
  42
0
  0
SEQEND
  0
POLYLINE
  8
Top
  6
CONTINUOUS
  66
1
  70
0
  40
0.0
  41
0.0
  0
VERTEX
  8
Top
  10
0.3427
  20
0.401
  42
0
  0
VERTEX
  8
Top
  10
0.3427
  20
0.425
  42
0
  0
VERTEX
  8
Top
  10
0.2557
  20
0.425
  42
0
  0
VERTEX
  8
Top
  10
0.2557
  20
0.401
  42
0
  0
VERTEX
  8
Top
  10
0.3427
  20
0.401
  42
0
  0
SEQEND
  0
POLYLINE
  8
Top
  6
CONTINUOUS
  66
1
  70
0
  40
0.0
  41
0.0
  0
VERTEX
  8
Top
  10
0.5487
  20
0.401
  42
0
  0
VERTEX
  8
Top
  10
0.5487
  20
0.425
  42
0
  0
VERTEX
  8
Top
  10
0.4617
  20
0.425
  42
0
  0
VERTEX
  8
Top
  10
0.4617
  20
0.401
  42
0
  0
VERTEX
  8
Top
  10
0.5487
  20
0.401
  42
0
  0
SEQEND
  0
POLYLINE
  8
Top
  6
CONTINUOUS
  66
1
  70
0
  40
0.0
  41
0.0
  0
VERTEX
  8
Top
  10
0.5487
  20
0.451
  42
0
  0
VERTEX
  8
Top
  10
0.5487
  20
0.475
  42
0
  0
VERTEX
  8
Top
  10
0.4617
  20
0.475
  42
0
  0
VERTEX
  8
Top
  10
0.4617
  20
0.451
  42
0
  0
VERTEX
  8
Top
  10
0.5487
  20
0.451
  42
0
  0
SEQEND
  0
POLYLINE
  8
Top
  6
CONTINUOUS
  66
1
  70
0
  40
0.0
  41
0.0
  0
VERTEX
  8
Top
  10
0.5487
  20
0.501
  42
0
  0
VERTEX
  8
Top
  10
0.5487
  20
0.525
  42
0
  0
VERTEX
  8
Top
  10
0.4617
  20
0.525
  42
0
  0
VERTEX
  8
Top
  10
0.4617
  20
0.501
  42
0
  0
VERTEX
  8
Top
  10
0.5487
  20
0.501
  42
0
  0
SEQEND
  0
POLYLINE
  8
Top
  6
CONTINUOUS
  66
1
  70
0
  40
0.0
  41
0.0
  0
VERTEX
  8
Top
  10
0.5487
  20
0.551
  42
0
  0
VERTEX
  8
Top
  10
0.5487
  20
0.575
  42
0
  0
VERTEX
  8
Top
  10
0.4617
  20
0.575
  42
0
  0
VERTEX
  8
Top
  10
0.4617
  20
0.551
  42
0
  0
VERTEX
  8
Top
  10
0.5487
  20
0.551
  42
0
  0
SEQEND
  0
POLYLINE
  8
Top
  6
CONTINUOUS
  66
1
  70
0
  40
0.0
  41
0.0
  0
VERTEX
  8
Top
  10
0.9537
  20
0.5354
  42
0
  0
VERTEX
  8
Top
  10
0.9754
  20
0.5354
  42
0
  0
VERTEX
  8
Top
  10
0.9754
  20
0.5827
  42
0
  0
VERTEX
  8
Top
  10
0.9537
  20
0.5827
  42
0
  0
VERTEX
  8
Top
  10
0.9537
  20
0.5354
  42
0
  0
SEQEND
  0
POLYLINE
  8
Top
  6
CONTINUOUS
  66
1
  70
0
  40
0.0
  41
0.0
  0
VERTEX
  8
Top
  10
0.9163
  20
0.5354
  42
0
  0
VERTEX
  8
Top
  10
0.938
  20
0.5354
  42
0
  0
VERTEX
  8
Top
  10
0.938
  20
0.5827
  42
0
  0
VERTEX
  8
Top
  10
0.9163
  20
0.5827
  42
0
  0
VERTEX
  8
Top
  10
0.9163
  20
0.5354
  42
0
  0
SEQEND
  0
POLYLINE
  8
Top
  6
CONTINUOUS
  66
1
  70
0
  40
0.0
  41
0.0
  0
VERTEX
  8
Top
  10
0.8789
  20
0.5354
  42
0
  0
VERTEX
  8
Top
  10
0.9006
  20
0.5354
  42
0
  0
VERTEX
  8
Top
  10
0.9006
  20
0.5827
  42
0
  0
VERTEX
  8
Top
  10
0.8789
  20
0.5827
  42
0
  0
VERTEX
  8
Top
  10
0.8789
  20
0.5354
  42
0
  0
SEQEND
  0
POLYLINE
  8
Top
  6
CONTINUOUS
  66
1
  70
0
  40
0.0
  41
0.0
  0
VERTEX
  8
Top
  10
0.8789
  20
0.4331
  42
0
  0
VERTEX
  8
Top
  10
0.9006
  20
0.4331
  42
0
  0
VERTEX
  8
Top
  10
0.9006
  20
0.4803
  42
0
  0
VERTEX
  8
Top
  10
0.8789
  20
0.4803
  42
0
  0
VERTEX
  8
Top
  10
0.8789
  20
0.4331
  42
0
  0
SEQEND
  0
POLYLINE
  8
Top
  6
CONTINUOUS
  66
1
  70
0
  40
0.0
  41
0.0
  0
VERTEX
  8
Top
  10
0.9537
  20
0.4331
  42
0
  0
VERTEX
  8
Top
  10
0.9754
  20
0.4331
  42
0
  0
VERTEX
  8
Top
  10
0.9754
  20
0.4803
  42
0
  0
VERTEX
  8
Top
  10
0.9537
  20
0.4803
  42
0
  0
VERTEX
  8
Top
  10
0.9537
  20
0.4331
  42
0
  0
SEQEND
  0
POLYLINE
  8
Top
  6
CONTINUOUS
  66
1
  70
0
  40
0.0098
  41
0.0098
  0
VERTEX
  8
Top
  10
0.5207
  20
0.189
  42
1
  0
VERTEX
  8
Top
  10
0.5108
  20
0.189
  42
1
  0
VERTEX
  8
Top
  10
0.5207
  20
0.189
  42
1
  0
SEQEND
  0
POLYLINE
  8
Top
  6
CONTINUOUS
  66
1
  70
0
  40
0.0098
  41
0.0098
  0
VERTEX
  8
Top
  10
0.4616
  20
0.7638
  42
1
  0
VERTEX
  8
Top
  10
0.4518
  20
0.7638
  42
1
  0
VERTEX
  8
Top
  10
0.4616
  20
0.7638
  42
1
  0
SEQEND
  0
POLYLINE
  8
Top
  6
CONTINUOUS
  66
1
  70
0
  40
0.0098
  41
0.0098
  0
VERTEX
  8
Top
  10
1.0404
  20
0.315
  42
1
  0
VERTEX
  8
Top
  10
1.0305
  20
0.315
  42
1
  0
VERTEX
  8
Top
  10
1.0404
  20
0.315
  42
1
  0
SEQEND
  0
POLYLINE
  8
Top
  6
CONTINUOUS
  66
1
  70
0
  40
0.0098
  41
0.0098
  0
VERTEX
  8
Top
  10
0.8593
  20
0.3031
  42
1
  0
VERTEX
  8
Top
  10
0.8494
  20
0.3031
  42
1
  0
VERTEX
  8
Top
  10
0.8593
  20
0.3031
  42
1
  0
SEQEND
  0
POLYLINE
  8
Top
  6
CONTINUOUS
  66
1
  70
0
  40
0.0098
  41
0.0098
  0
VERTEX
  8
Top
  10
0.627
  20
0.563
  42
1
  0
VERTEX
  8
Top
  10
0.6171
  20
0.563
  42
1
  0
VERTEX
  8
Top
  10
0.627
  20
0.563
  42
1
  0
SEQEND
  0
POLYLINE
  8
Top
  6
CONTINUOUS
  66
1
  70
0
  40
0.037
  41
0.037
  0
VERTEX
  8
Top
  10
1.2744
  20
0.4898
  42
1
  0
VERTEX
  8
Top
  10
1.2374
  20
0.4898
  42
1
  0
VERTEX
  8
Top
  10
1.2744
  20
0.4898
  42
1
  0
SEQEND
  0
POLYLINE
  8
Top
  6
CONTINUOUS
  66
1
  70
0
  40
0.037
  41
0.037
  0
VERTEX
  8
Top
  10
1.2744
  20
0.5898
  42
1
  0
VERTEX
  8
Top
  10
1.2374
  20
0.5898
  42
1
  0
VERTEX
  8
Top
  10
1.2744
  20
0.5898
  42
1
  0
SEQEND
  0
POLYLINE
  8
Top
  6
CONTINUOUS
  66
1
  70
0
  40
0.0118
  41
0.0118
  0
VERTEX
  8
Top
  10
0.5118
  20
0.311
  42
0
  0
VERTEX
  8
Top
  10
0.5118
  20
0.4064
  42
0
  0
SEQEND
  0
POLYLINE
  8
Top
  6
CONTINUOUS
  66
1
  70
0
  40
0.0059
  41
0.0059
  0
VERTEX
  8
Top
  10
0.5089
  20
0.311
  42
1
  0
VERTEX
  8
Top
  10
0.5148
  20
0.311
  42
1
  0
VERTEX
  8
Top
  10
0.5089
  20
0.311
  42
1
  0
SEQEND
  0
POLYLINE
  8
Top
  6
CONTINUOUS
  66
1
  70
0
  40
0.0059
  41
0.0059
  0
VERTEX
  8
Top
  10
0.5089
  20
0.4064
  42
1
  0
VERTEX
  8
Top
  10
0.5148
  20
0.4064
  42
1
  0
VERTEX
  8
Top
  10
0.5089
  20
0.4064
  42
1
  0
SEQEND
  0
POLYLINE
  8
Top
  6
CONTINUOUS
  66
1
  70
0
  40
0.0118
  41
0.0118
  0
VERTEX
  8
Top
  10
0.5118
  20
0.4064
  42
0
  0
VERTEX
  8
Top
  10
0.5052
  20
0.413
  42
0
  0
SEQEND
  0
POLYLINE
  8
Top
  6
CONTINUOUS
  66
1
  70
0
  40
0.0059
  41
0.0059
  0
VERTEX
  8
Top
  10
0.5089
  20
0.4064
  42
1
  0
VERTEX
  8
Top
  10
0.5148
  20
0.4064
  42
1
  0
VERTEX
  8
Top
  10
0.5089
  20
0.4064
  42
1
  0
SEQEND
  0
POLYLINE
  8
Top
  6
CONTINUOUS
  66
1
  70
0
  40
0.0059
  41
0.0059
  0
VERTEX
  8
Top
  10
0.5023
  20
0.413
  42
1
  0
VERTEX
  8
Top
  10
0.5082
  20
0.413
  42
1
  0
VERTEX
  8
Top
  10
0.5023
  20
0.413
  42
1
  0
SEQEND
  0
POLYLINE
  8
Top
  6
CONTINUOUS
  66
1
  70
0
  40
0.0118
  41
0.0118
  0
VERTEX
  8
Top
  10
0.5118
  20
0.311
  42
0
  0
VERTEX
  8
Top
  10
0.5118
  20
0.1929
  42
0
  0
SEQEND
  0
POLYLINE
  8
Top
  6
CONTINUOUS
  66
1
  70
0
  40
0.0059
  41
0.0059
  0
VERTEX
  8
Top
  10
0.5089
  20
0.311
  42
1
  0
VERTEX
  8
Top
  10
0.5148
  20
0.311
  42
1
  0
VERTEX
  8
Top
  10
0.5089
  20
0.311
  42
1
  0
SEQEND
  0
POLYLINE
  8
Top
  6
CONTINUOUS
  66
1
  70
0
  40
0.0059
  41
0.0059
  0
VERTEX
  8
Top
  10
0.5089
  20
0.1929
  42
1
  0
VERTEX
  8
Top
  10
0.5148
  20
0.1929
  42
1
  0
VERTEX
  8
Top
  10
0.5089
  20
0.1929
  42
1
  0
SEQEND
  0
POLYLINE
  8
Top
  6
CONTINUOUS
  66
1
  70
0
  40
0.0118
  41
0.0118
  0
VERTEX
  8
Top
  10
0.5118
  20
0.1929
  42
0
  0
VERTEX
  8
Top
  10
0.5157
  20
0.189
  42
0
  0
SEQEND
  0
POLYLINE
  8
Top
  6
CONTINUOUS
  66
1
  70
0
  40
0.0059
  41
0.0059
  0
VERTEX
  8
Top
  10
0.5089
  20
0.1929
  42
1
  0
VERTEX
  8
Top
  10
0.5148
  20
0.1929
  42
1
  0
VERTEX
  8
Top
  10
0.5089
  20
0.1929
  42
1
  0
SEQEND
  0
POLYLINE
  8
Top
  6
CONTINUOUS
  66
1
  70
0
  40
0.0059
  41
0.0059
  0
VERTEX
  8
Top
  10
0.5128
  20
0.189
  42
1
  0
VERTEX
  8
Top
  10
0.5187
  20
0.189
  42
1
  0
VERTEX
  8
Top
  10
0.5128
  20
0.189
  42
1
  0
SEQEND
  0
POLYLINE
  8
Top
  6
CONTINUOUS
  66
1
  70
0
  40
0.0079
  41
0.0079
  0
VERTEX
  8
Top
  10
1.0354
  20
0.315
  42
0
  0
VERTEX
  8
Top
  10
1.0354
  20
0.2795
  42
0
  0
SEQEND
  0
POLYLINE
  8
Top
  6
CONTINUOUS
  66
1
  70
0
  40
0.0039
  41
0.0039
  0
VERTEX
  8
Top
  10
1.0335
  20
0.315
  42
1
  0
VERTEX
  8
Top
  10
1.0374
  20
0.315
  42
1
  0
VERTEX
  8
Top
  10
1.0335
  20
0.315
  42
1
  0
SEQEND
  0
POLYLINE
  8
Top
  6
CONTINUOUS
  66
1
  70
0
  40
0.0039
  41
0.0039
  0
VERTEX
  8
Top
  10
1.0335
  20
0.2795
  42
1
  0
VERTEX
  8
Top
  10
1.0374
  20
0.2795
  42
1
  0
VERTEX
  8
Top
  10
1.0335
  20
0.2795
  42
1
  0
SEQEND
  0
POLYLINE
  8
Top
  6
CONTINUOUS
  66
1
  70
0
  40
0.0079
  41
0.0079
  0
VERTEX
  8
Top
  10
1.0354
  20
0.2795
  42
0
  0
VERTEX
  8
Top
  10
0.9803
  20
0.2244
  42
0
  0
SEQEND
  0
POLYLINE
  8
Top
  6
CONTINUOUS
  66
1
  70
0
  40
0.0039
  41
0.0039
  0
VERTEX
  8
Top
  10
1.0335
  20
0.2795
  42
1
  0
VERTEX
  8
Top
  10
1.0374
  20
0.2795
  42
1
  0
VERTEX
  8
Top
  10
1.0335
  20
0.2795
  42
1
  0
SEQEND
  0
POLYLINE
  8
Top
  6
CONTINUOUS
  66
1
  70
0
  40
0.0039
  41
0.0039
  0
VERTEX
  8
Top
  10
0.9783
  20
0.2244
  42
1
  0
VERTEX
  8
Top
  10
0.9823
  20
0.2244
  42
1
  0
VERTEX
  8
Top
  10
0.9783
  20
0.2244
  42
1
  0
SEQEND
  0
POLYLINE
  8
Top
  6
CONTINUOUS
  66
1
  70
0
  40
0.0118
  41
0.0118
  0
VERTEX
  8
Top
  10
0.9606
  20
0.7638
  42
0
  0
VERTEX
  8
Top
  10
0.9606
  20
0.8307
  42
0
  0
SEQEND
  0
POLYLINE
  8
Top
  6
CONTINUOUS
  66
1
  70
0
  40
0.0059
  41
0.0059
  0
VERTEX
  8
Top
  10
0.9577
  20
0.7638
  42
1
  0
VERTEX
  8
Top
  10
0.9636
  20
0.7638
  42
1
  0
VERTEX
  8
Top
  10
0.9577
  20
0.7638
  42
1
  0
SEQEND
  0
POLYLINE
  8
Top
  6
CONTINUOUS
  66
1
  70
0
  40
0.0059
  41
0.0059
  0
VERTEX
  8
Top
  10
0.9577
  20
0.8307
  42
1
  0
VERTEX
  8
Top
  10
0.9636
  20
0.8307
  42
1
  0
VERTEX
  8
Top
  10
0.9577
  20
0.8307
  42
1
  0
SEQEND
  0
POLYLINE
  8
Top
  6
CONTINUOUS
  66
1
  70
0
  40
0.0118
  41
0.0118
  0
VERTEX
  8
Top
  10
0.9606
  20
0.8307
  42
0
  0
VERTEX
  8
Top
  10
0.8858
  20
0.9055
  42
0
  0
SEQEND
  0
POLYLINE
  8
Top
  6
CONTINUOUS
  66
1
  70
0
  40
0.0059
  41
0.0059
  0
VERTEX
  8
Top
  10
0.9577
  20
0.8307
  42
1
  0
VERTEX
  8
Top
  10
0.9636
  20
0.8307
  42
1
  0
VERTEX
  8
Top
  10
0.9577
  20
0.8307
  42
1
  0
SEQEND
  0
POLYLINE
  8
Top
  6
CONTINUOUS
  66
1
  70
0
  40
0.0059
  41
0.0059
  0
VERTEX
  8
Top
  10
0.8829
  20
0.9055
  42
1
  0
VERTEX
  8
Top
  10
0.8888
  20
0.9055
  42
1
  0
VERTEX
  8
Top
  10
0.8829
  20
0.9055
  42
1
  0
SEQEND
  0
POLYLINE
  8
Top
  6
CONTINUOUS
  66
1
  70
0
  40
0.0118
  41
0.0118
  0
VERTEX
  8
Top
  10
0.8858
  20
0.9055
  42
0
  0
VERTEX
  8
Top
  10
0.7559
  20
0.9055
  42
0
  0
SEQEND
  0
POLYLINE
  8
Top
  6
CONTINUOUS
  66
1
  70
0
  40
0.0059
  41
0.0059
  0
VERTEX
  8
Top
  10
0.8829
  20
0.9055
  42
1
  0
VERTEX
  8
Top
  10
0.8888
  20
0.9055
  42
1
  0
VERTEX
  8
Top
  10
0.8829
  20
0.9055
  42
1
  0
SEQEND
  0
POLYLINE
  8
Top
  6
CONTINUOUS
  66
1
  70
0
  40
0.0059
  41
0.0059
  0
VERTEX
  8
Top
  10
0.753
  20
0.9055
  42
1
  0
VERTEX
  8
Top
  10
0.7589
  20
0.9055
  42
1
  0
VERTEX
  8
Top
  10
0.753
  20
0.9055
  42
1
  0
SEQEND
  0
POLYLINE
  8
Top
  6
CONTINUOUS
  66
1
  70
0
  40
0.0118
  41
0.0118
  0
VERTEX
  8
Top
  10
0.7559
  20
0.9055
  42
0
  0
VERTEX
  8
Top
  10
0.6496
  20
0.7992
  42
0
  0
SEQEND
  0
POLYLINE
  8
Top
  6
CONTINUOUS
  66
1
  70
0
  40
0.0059
  41
0.0059
  0
VERTEX
  8
Top
  10
0.753
  20
0.9055
  42
1
  0
VERTEX
  8
Top
  10
0.7589
  20
0.9055
  42
1
  0
VERTEX
  8
Top
  10
0.753
  20
0.9055
  42
1
  0
SEQEND
  0
POLYLINE
  8
Top
  6
CONTINUOUS
  66
1
  70
0
  40
0.0059
  41
0.0059
  0
VERTEX
  8
Top
  10
0.6467
  20
0.7992
  42
1
  0
VERTEX
  8
Top
  10
0.6526
  20
0.7992
  42
1
  0
VERTEX
  8
Top
  10
0.6467
  20
0.7992
  42
1
  0
SEQEND
  0
POLYLINE
  8
Top
  6
CONTINUOUS
  66
1
  70
0
  40
0.0118
  41
0.0118
  0
VERTEX
  8
Top
  10
0.9606
  20
0.7638
  42
0
  0
VERTEX
  8
Top
  10
0.9606
  20
0.6969
  42
0
  0
SEQEND
  0
POLYLINE
  8
Top
  6
CONTINUOUS
  66
1
  70
0
  40
0.0059
  41
0.0059
  0
VERTEX
  8
Top
  10
0.9577
  20
0.7638
  42
1
  0
VERTEX
  8
Top
  10
0.9636
  20
0.7638
  42
1
  0
VERTEX
  8
Top
  10
0.9577
  20
0.7638
  42
1
  0
SEQEND
  0
POLYLINE
  8
Top
  6
CONTINUOUS
  66
1
  70
0
  40
0.0059
  41
0.0059
  0
VERTEX
  8
Top
  10
0.9577
  20
0.6969
  42
1
  0
VERTEX
  8
Top
  10
0.9636
  20
0.6969
  42
1
  0
VERTEX
  8
Top
  10
0.9577
  20
0.6969
  42
1
  0
SEQEND
  0
POLYLINE
  8
Top
  6
CONTINUOUS
  66
1
  70
0
  40
0.0118
  41
0.0118
  0
VERTEX
  8
Top
  10
0.9606
  20
0.6969
  42
0
  0
VERTEX
  8
Top
  10
0.9213
  20
0.6575
  42
0
  0
SEQEND
  0
POLYLINE
  8
Top
  6
CONTINUOUS
  66
1
  70
0
  40
0.0059
  41
0.0059
  0
VERTEX
  8
Top
  10
0.9577
  20
0.6969
  42
1
  0
VERTEX
  8
Top
  10
0.9636
  20
0.6969
  42
1
  0
VERTEX
  8
Top
  10
0.9577
  20
0.6969
  42
1
  0
SEQEND
  0
POLYLINE
  8
Top
  6
CONTINUOUS
  66
1
  70
0
  40
0.0059
  41
0.0059
  0
VERTEX
  8
Top
  10
0.9183
  20
0.6575
  42
1
  0
VERTEX
  8
Top
  10
0.9242
  20
0.6575
  42
1
  0
VERTEX
  8
Top
  10
0.9183
  20
0.6575
  42
1
  0
SEQEND
  0
POLYLINE
  8
Top
  6
CONTINUOUS
  66
1
  70
0
  40
0.0118
  41
0.0118
  0
VERTEX
  8
Top
  10
0.9213
  20
0.6575
  42
0
  0
VERTEX
  8
Top
  10
0.9213
  20
0.565
  42
0
  0
SEQEND
  0
POLYLINE
  8
Top
  6
CONTINUOUS
  66
1
  70
0
  40
0.0059
  41
0.0059
  0
VERTEX
  8
Top
  10
0.9183
  20
0.6575
  42
1
  0
VERTEX
  8
Top
  10
0.9242
  20
0.6575
  42
1
  0
VERTEX
  8
Top
  10
0.9183
  20
0.6575
  42
1
  0
SEQEND
  0
POLYLINE
  8
Top
  6
CONTINUOUS
  66
1
  70
0
  40
0.0059
  41
0.0059
  0
VERTEX
  8
Top
  10
0.9183
  20
0.565
  42
1
  0
VERTEX
  8
Top
  10
0.9242
  20
0.565
  42
1
  0
VERTEX
  8
Top
  10
0.9183
  20
0.565
  42
1
  0
SEQEND
  0
POLYLINE
  8
Top
  6
CONTINUOUS
  66
1
  70
0
  40
0.0118
  41
0.0118
  0
VERTEX
  8
Top
  10
0.9213
  20
0.565
  42
0
  0
VERTEX
  8
Top
  10
0.9272
  20
0.5591
  42
0
  0
SEQEND
  0
POLYLINE
  8
Top
  6
CONTINUOUS
  66
1
  70
0
  40
0.0059
  41
0.0059
  0
VERTEX
  8
Top
  10
0.9183
  20
0.565
  42
1
  0
VERTEX
  8
Top
  10
0.9242
  20
0.565
  42
1
  0
VERTEX
  8
Top
  10
0.9183
  20
0.565
  42
1
  0
SEQEND
  0
POLYLINE
  8
Top
  6
CONTINUOUS
  66
1
  70
0
  40
0.0059
  41
0.0059
  0
VERTEX
  8
Top
  10
0.9242
  20
0.5591
  42
1
  0
VERTEX
  8
Top
  10
0.9301
  20
0.5591
  42
1
  0
VERTEX
  8
Top
  10
0.9242
  20
0.5591
  42
1
  0
SEQEND
  0
POLYLINE
  8
Top
  6
CONTINUOUS
  66
1
  70
0
  40
0.0118
  41
0.0118
  0
VERTEX
  8
Top
  10
0.4567
  20
0.7638
  42
0
  0
VERTEX
  8
Top
  10
0.4567
  20
0.6614
  42
0
  0
SEQEND
  0
POLYLINE
  8
Top
  6
CONTINUOUS
  66
1
  70
0
  40
0.0059
  41
0.0059
  0
VERTEX
  8
Top
  10
0.4537
  20
0.7638
  42
1
  0
VERTEX
  8
Top
  10
0.4596
  20
0.7638
  42
1
  0
VERTEX
  8
Top
  10
0.4537
  20
0.7638
  42
1
  0
SEQEND
  0
POLYLINE
  8
Top
  6
CONTINUOUS
  66
1
  70
0
  40
0.0059
  41
0.0059
  0
VERTEX
  8
Top
  10
0.4537
  20
0.6614
  42
1
  0
VERTEX
  8
Top
  10
0.4596
  20
0.6614
  42
1
  0
VERTEX
  8
Top
  10
0.4537
  20
0.6614
  42
1
  0
SEQEND
  0
POLYLINE
  8
Top
  6
CONTINUOUS
  66
1
  70
0
  40
0.0118
  41
0.0118
  0
VERTEX
  8
Top
  10
0.4567
  20
0.7638
  42
0
  0
VERTEX
  8
Top
  10
0.6142
  20
0.7638
  42
0
  0
SEQEND
  0
POLYLINE
  8
Top
  6
CONTINUOUS
  66
1
  70
0
  40
0.0059
  41
0.0059
  0
VERTEX
  8
Top
  10
0.4537
  20
0.7638
  42
1
  0
VERTEX
  8
Top
  10
0.4596
  20
0.7638
  42
1
  0
VERTEX
  8
Top
  10
0.4537
  20
0.7638
  42
1
  0
SEQEND
  0
POLYLINE
  8
Top
  6
CONTINUOUS
  66
1
  70
0
  40
0.0059
  41
0.0059
  0
VERTEX
  8
Top
  10
0.6112
  20
0.7638
  42
1
  0
VERTEX
  8
Top
  10
0.6171
  20
0.7638
  42
1
  0
VERTEX
  8
Top
  10
0.6112
  20
0.7638
  42
1
  0
SEQEND
  0
POLYLINE
  8
Top
  6
CONTINUOUS
  66
1
  70
0
  40
0.0118
  41
0.0118
  0
VERTEX
  8
Top
  10
0.6142
  20
0.7638
  42
0
  0
VERTEX
  8
Top
  10
0.6496
  20
0.7992
  42
0
  0
SEQEND
  0
POLYLINE
  8
Top
  6
CONTINUOUS
  66
1
  70
0
  40
0.0059
  41
0.0059
  0
VERTEX
  8
Top
  10
0.6112
  20
0.7638
  42
1
  0
VERTEX
  8
Top
  10
0.6171
  20
0.7638
  42
1
  0
VERTEX
  8
Top
  10
0.6112
  20
0.7638
  42
1
  0
SEQEND
  0
POLYLINE
  8
Top
  6
CONTINUOUS
  66
1
  70
0
  40
0.0059
  41
0.0059
  0
VERTEX
  8
Top
  10
0.6467
  20
0.7992
  42
1
  0
VERTEX
  8
Top
  10
0.6526
  20
0.7992
  42
1
  0
VERTEX
  8
Top
  10
0.6467
  20
0.7992
  42
1
  0
SEQEND
  0
POLYLINE
  8
Top
  6
CONTINUOUS
  66
1
  70
0
  40
0.0118
  41
0.0118
  0
VERTEX
  8
Top
  10
1.0354
  20
0.315
  42
0
  0
VERTEX
  8
Top
  10
1.0811
  20
0.315
  42
0
  0
SEQEND
  0
POLYLINE
  8
Top
  6
CONTINUOUS
  66
1
  70
0
  40
0.0059
  41
0.0059
  0
VERTEX
  8
Top
  10
1.0325
  20
0.315
  42
1
  0
VERTEX
  8
Top
  10
1.0384
  20
0.315
  42
1
  0
VERTEX
  8
Top
  10
1.0325
  20
0.315
  42
1
  0
SEQEND
  0
POLYLINE
  8
Top
  6
CONTINUOUS
  66
1
  70
0
  40
0.0059
  41
0.0059
  0
VERTEX
  8
Top
  10
1.0781
  20
0.315
  42
1
  0
VERTEX
  8
Top
  10
1.0841
  20
0.315
  42
1
  0
VERTEX
  8
Top
  10
1.0781
  20
0.315
  42
1
  0
SEQEND
  0
POLYLINE
  8
Top
  6
CONTINUOUS
  66
1
  70
0
  40
0.0118
  41
0.0118
  0
VERTEX
  8
Top
  10
1.0811
  20
0.315
  42
0
  0
VERTEX
  8
Top
  10
1.2559
  20
0.4898
  42
0
  0
SEQEND
  0
POLYLINE
  8
Top
  6
CONTINUOUS
  66
1
  70
0
  40
0.0059
  41
0.0059
  0
VERTEX
  8
Top
  10
1.0781
  20
0.315
  42
1
  0
VERTEX
  8
Top
  10
1.0841
  20
0.315
  42
1
  0
VERTEX
  8
Top
  10
1.0781
  20
0.315
  42
1
  0
SEQEND
  0
POLYLINE
  8
Top
  6
CONTINUOUS
  66
1
  70
0
  40
0.0059
  41
0.0059
  0
VERTEX
  8
Top
  10
1.253
  20
0.4898
  42
1
  0
VERTEX
  8
Top
  10
1.2589
  20
0.4898
  42
1
  0
VERTEX
  8
Top
  10
1.253
  20
0.4898
  42
1
  0
SEQEND
  0
POLYLINE
  8
Top
  6
CONTINUOUS
  66
1
  70
0
  40
0.0394
  41
0.0394
  0
VERTEX
  8
Top
  10
0.1181
  20
0.7008
  42
0
  0
VERTEX
  8
Top
  10
0.1181
  20
0.5394
  42
0
  0
SEQEND
  0
POLYLINE
  8
Top
  6
CONTINUOUS
  66
1
  70
0
  40
0.0197
  41
0.0197
  0
VERTEX
  8
Top
  10
0.1083
  20
0.7008
  42
1
  0
VERTEX
  8
Top
  10
0.128
  20
0.7008
  42
1
  0
VERTEX
  8
Top
  10
0.1083
  20
0.7008
  42
1
  0
SEQEND
  0
POLYLINE
  8
Top
  6
CONTINUOUS
  66
1
  70
0
  40
0.0197
  41
0.0197
  0
VERTEX
  8
Top
  10
0.1083
  20
0.5394
  42
1
  0
VERTEX
  8
Top
  10
0.128
  20
0.5394
  42
1
  0
VERTEX
  8
Top
  10
0.1083
  20
0.5394
  42
1
  0
SEQEND
  0
POLYLINE
  8
Top
  6
CONTINUOUS
  66
1
  70
0
  40
0.0079
  41
0.0079
  0
VERTEX
  8
Top
  10
0.1181
  20
0.5394
  42
0
  0
VERTEX
  8
Top
  10
0.1496
  20
0.5394
  42
0
  0
SEQEND
  0
POLYLINE
  8
Top
  6
CONTINUOUS
  66
1
  70
0
  40
0.0039
  41
0.0039
  0
VERTEX
  8
Top
  10
0.1161
  20
0.5394
  42
1
  0
VERTEX
  8
Top
  10
0.1201
  20
0.5394
  42
1
  0
VERTEX
  8
Top
  10
0.1161
  20
0.5394
  42
1
  0
SEQEND
  0
POLYLINE
  8
Top
  6
CONTINUOUS
  66
1
  70
0
  40
0.0039
  41
0.0039
  0
VERTEX
  8
Top
  10
0.1476
  20
0.5394
  42
1
  0
VERTEX
  8
Top
  10
0.1516
  20
0.5394
  42
1
  0
VERTEX
  8
Top
  10
0.1476
  20
0.5394
  42
1
  0
SEQEND
  0
POLYLINE
  8
Top
  6
CONTINUOUS
  66
1
  70
0
  40
0.0394
  41
0.0394
  0
VERTEX
  8
Top
  10
0.1496
  20
0.5394
  42
0
  0
VERTEX
  8
Top
  10
0.1772
  20
0.5669
  42
0
  0
SEQEND
  0
POLYLINE
  8
Top
  6
CONTINUOUS
  66
1
  70
0
  40
0.0197
  41
0.0197
  0
VERTEX
  8
Top
  10
0.1398
  20
0.5394
  42
1
  0
VERTEX
  8
Top
  10
0.1594
  20
0.5394
  42
1
  0
VERTEX
  8
Top
  10
0.1398
  20
0.5394
  42
1
  0
SEQEND
  0
POLYLINE
  8
Top
  6
CONTINUOUS
  66
1
  70
0
  40
0.0197
  41
0.0197
  0
VERTEX
  8
Top
  10
0.1673
  20
0.5669
  42
1
  0
VERTEX
  8
Top
  10
0.187
  20
0.5669
  42
1
  0
VERTEX
  8
Top
  10
0.1673
  20
0.5669
  42
1
  0
SEQEND
  0
POLYLINE
  8
Top
  6
CONTINUOUS
  66
1
  70
0
  40
0.0394
  41
0.0394
  0
VERTEX
  8
Top
  10
0.1772
  20
0.5669
  42
0
  0
VERTEX
  8
Top
  10
0.2953
  20
0.5669
  42
0
  0
SEQEND
  0
POLYLINE
  8
Top
  6
CONTINUOUS
  66
1
  70
0
  40
0.0197
  41
0.0197
  0
VERTEX
  8
Top
  10
0.1673
  20
0.5669
  42
1
  0
VERTEX
  8
Top
  10
0.187
  20
0.5669
  42
1
  0
VERTEX
  8
Top
  10
0.1673
  20
0.5669
  42
1
  0
SEQEND
  0
POLYLINE
  8
Top
  6
CONTINUOUS
  66
1
  70
0
  40
0.0197
  41
0.0197
  0
VERTEX
  8
Top
  10
0.2854
  20
0.5669
  42
1
  0
VERTEX
  8
Top
  10
0.3051
  20
0.5669
  42
1
  0
VERTEX
  8
Top
  10
0.2854
  20
0.5669
  42
1
  0
SEQEND
  0
POLYLINE
  8
Top
  6
CONTINUOUS
  66
1
  70
0
  40
0.0079
  41
0.0079
  0
VERTEX
  8
Top
  10
0.2953
  20
0.5669
  42
0
  0
VERTEX
  8
Top
  10
0.2992
  20
0.563
  42
0
  0
SEQEND
  0
POLYLINE
  8
Top
  6
CONTINUOUS
  66
1
  70
0
  40
0.0039
  41
0.0039
  0
VERTEX
  8
Top
  10
0.2933
  20
0.5669
  42
1
  0
VERTEX
  8
Top
  10
0.2972
  20
0.5669
  42
1
  0
VERTEX
  8
Top
  10
0.2933
  20
0.5669
  42
1
  0
SEQEND
  0
POLYLINE
  8
Top
  6
CONTINUOUS
  66
1
  70
0
  40
0.0039
  41
0.0039
  0
VERTEX
  8
Top
  10
0.2972
  20
0.563
  42
1
  0
VERTEX
  8
Top
  10
0.3012
  20
0.563
  42
1
  0
VERTEX
  8
Top
  10
0.2972
  20
0.563
  42
1
  0
SEQEND
  0
POLYLINE
  8
Top
  6
CONTINUOUS
  66
1
  70
0
  40
0.0079
  41
0.0079
  0
VERTEX
  8
Top
  10
0.1181
  20
0.5394
  42
0
  0
VERTEX
  8
Top
  10
0.1575
  20
0.5394
  42
0
  0
SEQEND
  0
POLYLINE
  8
Top
  6
CONTINUOUS
  66
1
  70
0
  40
0.0039
  41
0.0039
  0
VERTEX
  8
Top
  10
0.1161
  20
0.5394
  42
1
  0
VERTEX
  8
Top
  10
0.1201
  20
0.5394
  42
1
  0
VERTEX
  8
Top
  10
0.1161
  20
0.5394
  42
1
  0
SEQEND
  0
POLYLINE
  8
Top
  6
CONTINUOUS
  66
1
  70
0
  40
0.0039
  41
0.0039
  0
VERTEX
  8
Top
  10
0.1555
  20
0.5394
  42
1
  0
VERTEX
  8
Top
  10
0.1594
  20
0.5394
  42
1
  0
VERTEX
  8
Top
  10
0.1555
  20
0.5394
  42
1
  0
SEQEND
  0
POLYLINE
  8
Top
  6
CONTINUOUS
  66
1
  70
0
  40
0.0394
  41
0.0394
  0
VERTEX
  8
Top
  10
0.1575
  20
0.5394
  42
0
  0
VERTEX
  8
Top
  10
0.185
  20
0.5118
  42
0
  0
SEQEND
  0
POLYLINE
  8
Top
  6
CONTINUOUS
  66
1
  70
0
  40
0.0197
  41
0.0197
  0
VERTEX
  8
Top
  10
0.1476
  20
0.5394
  42
1
  0
VERTEX
  8
Top
  10
0.1673
  20
0.5394
  42
1
  0
VERTEX
  8
Top
  10
0.1476
  20
0.5394
  42
1
  0
SEQEND
  0
POLYLINE
  8
Top
  6
CONTINUOUS
  66
1
  70
0
  40
0.0197
  41
0.0197
  0
VERTEX
  8
Top
  10
0.1752
  20
0.5118
  42
1
  0
VERTEX
  8
Top
  10
0.1949
  20
0.5118
  42
1
  0
VERTEX
  8
Top
  10
0.1752
  20
0.5118
  42
1
  0
SEQEND
  0
POLYLINE
  8
Top
  6
CONTINUOUS
  66
1
  70
0
  40
0.0394
  41
0.0394
  0
VERTEX
  8
Top
  10
0.185
  20
0.5118
  42
0
  0
VERTEX
  8
Top
  10
0.298
  20
0.5118
  42
0
  0
SEQEND
  0
POLYLINE
  8
Top
  6
CONTINUOUS
  66
1
  70
0
  40
0.0197
  41
0.0197
  0
VERTEX
  8
Top
  10
0.1752
  20
0.5118
  42
1
  0
VERTEX
  8
Top
  10
0.1949
  20
0.5118
  42
1
  0
VERTEX
  8
Top
  10
0.1752
  20
0.5118
  42
1
  0
SEQEND
  0
POLYLINE
  8
Top
  6
CONTINUOUS
  66
1
  70
0
  40
0.0197
  41
0.0197
  0
VERTEX
  8
Top
  10
0.2882
  20
0.5118
  42
1
  0
VERTEX
  8
Top
  10
0.3079
  20
0.5118
  42
1
  0
VERTEX
  8
Top
  10
0.2882
  20
0.5118
  42
1
  0
SEQEND
  0
POLYLINE
  8
Top
  6
CONTINUOUS
  66
1
  70
0
  40
0.0079
  41
0.0079
  0
VERTEX
  8
Top
  10
0.298
  20
0.5118
  42
0
  0
VERTEX
  8
Top
  10
0.2992
  20
0.513
  42
0
  0
SEQEND
  0
POLYLINE
  8
Top
  6
CONTINUOUS
  66
1
  70
0
  40
0.0039
  41
0.0039
  0
VERTEX
  8
Top
  10
0.2961
  20
0.5118
  42
1
  0
VERTEX
  8
Top
  10
0.3
  20
0.5118
  42
1
  0
VERTEX
  8
Top
  10
0.2961
  20
0.5118
  42
1
  0
SEQEND
  0
POLYLINE
  8
Top
  6
CONTINUOUS
  66
1
  70
0
  40
0.0039
  41
0.0039
  0
VERTEX
  8
Top
  10
0.2972
  20
0.513
  42
1
  0
VERTEX
  8
Top
  10
0.3012
  20
0.513
  42
1
  0
VERTEX
  8
Top
  10
0.2972
  20
0.513
  42
1
  0
SEQEND
  0
POLYLINE
  8
Top
  6
CONTINUOUS
  66
1
  70
0
  40
0.0394
  41
0.0394
  0
VERTEX
  8
Top
  10
0.1181
  20
0.2717
  42
0
  0
VERTEX
  8
Top
  10
0.1181
  20
0.4331
  42
0
  0
SEQEND
  0
POLYLINE
  8
Top
  6
CONTINUOUS
  66
1
  70
0
  40
0.0197
  41
0.0197
  0
VERTEX
  8
Top
  10
0.1083
  20
0.2717
  42
1
  0
VERTEX
  8
Top
  10
0.128
  20
0.2717
  42
1
  0
VERTEX
  8
Top
  10
0.1083
  20
0.2717
  42
1
  0
SEQEND
  0
POLYLINE
  8
Top
  6
CONTINUOUS
  66
1
  70
0
  40
0.0197
  41
0.0197
  0
VERTEX
  8
Top
  10
0.1083
  20
0.4331
  42
1
  0
VERTEX
  8
Top
  10
0.128
  20
0.4331
  42
1
  0
VERTEX
  8
Top
  10
0.1083
  20
0.4331
  42
1
  0
SEQEND
  0
POLYLINE
  8
Top
  6
CONTINUOUS
  66
1
  70
0
  40
0.0394
  41
0.0394
  0
VERTEX
  8
Top
  10
0.1181
  20
0.4331
  42
0
  0
VERTEX
  8
Top
  10
0.252
  20
0.4331
  42
0
  0
SEQEND
  0
POLYLINE
  8
Top
  6
CONTINUOUS
  66
1
  70
0
  40
0.0197
  41
0.0197
  0
VERTEX
  8
Top
  10
0.1083
  20
0.4331
  42
1
  0
VERTEX
  8
Top
  10
0.128
  20
0.4331
  42
1
  0
VERTEX
  8
Top
  10
0.1083
  20
0.4331
  42
1
  0
SEQEND
  0
POLYLINE
  8
Top
  6
CONTINUOUS
  66
1
  70
0
  40
0.0197
  41
0.0197
  0
VERTEX
  8
Top
  10
0.2421
  20
0.4331
  42
1
  0
VERTEX
  8
Top
  10
0.2618
  20
0.4331
  42
1
  0
VERTEX
  8
Top
  10
0.2421
  20
0.4331
  42
1
  0
SEQEND
  0
POLYLINE
  8
Top
  6
CONTINUOUS
  66
1
  70
0
  40
0.0394
  41
0.0394
  0
VERTEX
  8
Top
  10
0.252
  20
0.4331
  42
0
  0
VERTEX
  8
Top
  10
0.272
  20
0.413
  42
0
  0
SEQEND
  0
POLYLINE
  8
Top
  6
CONTINUOUS
  66
1
  70
0
  40
0.0197
  41
0.0197
  0
VERTEX
  8
Top
  10
0.2421
  20
0.4331
  42
1
  0
VERTEX
  8
Top
  10
0.2618
  20
0.4331
  42
1
  0
VERTEX
  8
Top
  10
0.2421
  20
0.4331
  42
1
  0
SEQEND
  0
POLYLINE
  8
Top
  6
CONTINUOUS
  66
1
  70
0
  40
0.0197
  41
0.0197
  0
VERTEX
  8
Top
  10
0.2622
  20
0.413
  42
1
  0
VERTEX
  8
Top
  10
0.2819
  20
0.413
  42
1
  0
VERTEX
  8
Top
  10
0.2622
  20
0.413
  42
1
  0
SEQEND
  0
POLYLINE
  8
Top
  6
CONTINUOUS
  66
1
  70
0
  40
0.0394
  41
0.0394
  0
VERTEX
  8
Top
  10
0.272
  20
0.413
  42
0
  0
VERTEX
  8
Top
  10
0.2992
  20
0.413
  42
0
  0
SEQEND
  0
POLYLINE
  8
Top
  6
CONTINUOUS
  66
1
  70
0
  40
0.0197
  41
0.0197
  0
VERTEX
  8
Top
  10
0.2622
  20
0.413
  42
1
  0
VERTEX
  8
Top
  10
0.2819
  20
0.413
  42
1
  0
VERTEX
  8
Top
  10
0.2622
  20
0.413
  42
1
  0
SEQEND
  0
POLYLINE
  8
Top
  6
CONTINUOUS
  66
1
  70
0
  40
0.0197
  41
0.0197
  0
VERTEX
  8
Top
  10
0.2894
  20
0.413
  42
1
  0
VERTEX
  8
Top
  10
0.3091
  20
0.413
  42
1
  0
VERTEX
  8
Top
  10
0.2894
  20
0.413
  42
1
  0
SEQEND
  0
POLYLINE
  8
Top
  6
CONTINUOUS
  66
1
  70
0
  40
0.0394
  41
0.0394
  0
VERTEX
  8
Top
  10
0.252
  20
0.4331
  42
0
  0
VERTEX
  8
Top
  10
0.252
  20
0.4488
  42
0
  0
SEQEND
  0
POLYLINE
  8
Top
  6
CONTINUOUS
  66
1
  70
0
  40
0.0197
  41
0.0197
  0
VERTEX
  8
Top
  10
0.2421
  20
0.4331
  42
1
  0
VERTEX
  8
Top
  10
0.2618
  20
0.4331
  42
1
  0
VERTEX
  8
Top
  10
0.2421
  20
0.4331
  42
1
  0
SEQEND
  0
POLYLINE
  8
Top
  6
CONTINUOUS
  66
1
  70
0
  40
0.0197
  41
0.0197
  0
VERTEX
  8
Top
  10
0.2421
  20
0.4488
  42
1
  0
VERTEX
  8
Top
  10
0.2618
  20
0.4488
  42
1
  0
VERTEX
  8
Top
  10
0.2421
  20
0.4488
  42
1
  0
SEQEND
  0
POLYLINE
  8
Top
  6
CONTINUOUS
  66
1
  70
0
  40
0.0394
  41
0.0394
  0
VERTEX
  8
Top
  10
0.252
  20
0.4488
  42
0
  0
VERTEX
  8
Top
  10
0.2661
  20
0.463
  42
0
  0
SEQEND
  0
POLYLINE
  8
Top
  6
CONTINUOUS
  66
1
  70
0
  40
0.0197
  41
0.0197
  0
VERTEX
  8
Top
  10
0.2421
  20
0.4488
  42
1
  0
VERTEX
  8
Top
  10
0.2618
  20
0.4488
  42
1
  0
VERTEX
  8
Top
  10
0.2421
  20
0.4488
  42
1
  0
SEQEND
  0
POLYLINE
  8
Top
  6
CONTINUOUS
  66
1
  70
0
  40
0.0197
  41
0.0197
  0
VERTEX
  8
Top
  10
0.2563
  20
0.463
  42
1
  0
VERTEX
  8
Top
  10
0.276
  20
0.463
  42
1
  0
VERTEX
  8
Top
  10
0.2563
  20
0.463
  42
1
  0
SEQEND
  0
POLYLINE
  8
Top
  6
CONTINUOUS
  66
1
  70
0
  40
0.0394
  41
0.0394
  0
VERTEX
  8
Top
  10
0.2661
  20
0.463
  42
0
  0
VERTEX
  8
Top
  10
0.2992
  20
0.463
  42
0
  0
SEQEND
  0
POLYLINE
  8
Top
  6
CONTINUOUS
  66
1
  70
0
  40
0.0197
  41
0.0197
  0
VERTEX
  8
Top
  10
0.2563
  20
0.463
  42
1
  0
VERTEX
  8
Top
  10
0.276
  20
0.463
  42
1
  0
VERTEX
  8
Top
  10
0.2563
  20
0.463
  42
1
  0
SEQEND
  0
POLYLINE
  8
Top
  6
CONTINUOUS
  66
1
  70
0
  40
0.0197
  41
0.0197
  0
VERTEX
  8
Top
  10
0.2894
  20
0.463
  42
1
  0
VERTEX
  8
Top
  10
0.3091
  20
0.463
  42
1
  0
VERTEX
  8
Top
  10
0.2894
  20
0.463
  42
1
  0
SEQEND
  0
POLYLINE
  8
Top
  6
CONTINUOUS
  66
1
  70
0
  40
0.0079
  41
0.0079
  0
VERTEX
  8
Top
  10
1.1024
  20
0.4921
  42
0
  0
VERTEX
  8
Top
  10
1.0394
  20
0.4921
  42
0
  0
SEQEND
  0
POLYLINE
  8
Top
  6
CONTINUOUS
  66
1
  70
0
  40
0.0039
  41
0.0039
  0
VERTEX
  8
Top
  10
1.1004
  20
0.4921
  42
1
  0
VERTEX
  8
Top
  10
1.1043
  20
0.4921
  42
1
  0
VERTEX
  8
Top
  10
1.1004
  20
0.4921
  42
1
  0
SEQEND
  0
POLYLINE
  8
Top
  6
CONTINUOUS
  66
1
  70
0
  40
0.0039
  41
0.0039
  0
VERTEX
  8
Top
  10
1.0374
  20
0.4921
  42
1
  0
VERTEX
  8
Top
  10
1.0413
  20
0.4921
  42
1
  0
VERTEX
  8
Top
  10
1.0374
  20
0.4921
  42
1
  0
SEQEND
  0
POLYLINE
  8
Top
  6
CONTINUOUS
  66
1
  70
0
  40
0.0079
  41
0.0079
  0
VERTEX
  8
Top
  10
1.0394
  20
0.4921
  42
0
  0
VERTEX
  8
Top
  10
1.0394
  20
0.4921
  42
0
  0
SEQEND
  0
POLYLINE
  8
Top
  6
CONTINUOUS
  66
1
  70
0
  40
0.0039
  41
0.0039
  0
VERTEX
  8
Top
  10
1.0374
  20
0.4921
  42
1
  0
VERTEX
  8
Top
  10
1.0413
  20
0.4921
  42
1
  0
VERTEX
  8
Top
  10
1.0374
  20
0.4921
  42
1
  0
SEQEND
  0
POLYLINE
  8
Top
  6
CONTINUOUS
  66
1
  70
0
  40
0.0079
  41
0.0079
  0
VERTEX
  8
Top
  10
1.0394
  20
0.4921
  42
0
  0
VERTEX
  8
Top
  10
1.0079
  20
0.4921
  42
0
  0
SEQEND
  0
POLYLINE
  8
Top
  6
CONTINUOUS
  66
1
  70
0
  40
0.0039
  41
0.0039
  0
VERTEX
  8
Top
  10
1.0374
  20
0.4921
  42
1
  0
VERTEX
  8
Top
  10
1.0413
  20
0.4921
  42
1
  0
VERTEX
  8
Top
  10
1.0374
  20
0.4921
  42
1
  0
SEQEND
  0
POLYLINE
  8
Top
  6
CONTINUOUS
  66
1
  70
0
  40
0.0039
  41
0.0039
  0
VERTEX
  8
Top
  10
1.0059
  20
0.4921
  42
1
  0
VERTEX
  8
Top
  10
1.0098
  20
0.4921
  42
1
  0
VERTEX
  8
Top
  10
1.0059
  20
0.4921
  42
1
  0
SEQEND
  0
POLYLINE
  8
Top
  6
CONTINUOUS
  66
1
  70
0
  40
0.0079
  41
0.0079
  0
VERTEX
  8
Top
  10
1.0079
  20
0.4921
  42
0
  0
VERTEX
  8
Top
  10
0.9882
  20
0.5118
  42
0
  0
SEQEND
  0
POLYLINE
  8
Top
  6
CONTINUOUS
  66
1
  70
0
  40
0.0039
  41
0.0039
  0
VERTEX
  8
Top
  10
1.0059
  20
0.4921
  42
1
  0
VERTEX
  8
Top
  10
1.0098
  20
0.4921
  42
1
  0
VERTEX
  8
Top
  10
1.0059
  20
0.4921
  42
1
  0
SEQEND
  0
POLYLINE
  8
Top
  6
CONTINUOUS
  66
1
  70
0
  40
0.0039
  41
0.0039
  0
VERTEX
  8
Top
  10
0.9862
  20
0.5118
  42
1
  0
VERTEX
  8
Top
  10
0.9902
  20
0.5118
  42
1
  0
VERTEX
  8
Top
  10
0.9862
  20
0.5118
  42
1
  0
SEQEND
  0
POLYLINE
  8
Top
  6
CONTINUOUS
  66
1
  70
0
  40
0.0079
  41
0.0079
  0
VERTEX
  8
Top
  10
0.9882
  20
0.5118
  42
0
  0
VERTEX
  8
Top
  10
0.9449
  20
0.5118
  42
0
  0
SEQEND
  0
POLYLINE
  8
Top
  6
CONTINUOUS
  66
1
  70
0
  40
0.0039
  41
0.0039
  0
VERTEX
  8
Top
  10
0.9862
  20
0.5118
  42
1
  0
VERTEX
  8
Top
  10
0.9902
  20
0.5118
  42
1
  0
VERTEX
  8
Top
  10
0.9862
  20
0.5118
  42
1
  0
SEQEND
  0
POLYLINE
  8
Top
  6
CONTINUOUS
  66
1
  70
0
  40
0.0039
  41
0.0039
  0
VERTEX
  8
Top
  10
0.9429
  20
0.5118
  42
1
  0
VERTEX
  8
Top
  10
0.9469
  20
0.5118
  42
1
  0
VERTEX
  8
Top
  10
0.9429
  20
0.5118
  42
1
  0
SEQEND
  0
POLYLINE
  8
Top
  6
CONTINUOUS
  66
1
  70
0
  40
0.0079
  41
0.0079
  0
VERTEX
  8
Top
  10
0.9449
  20
0.5118
  42
0
  0
VERTEX
  8
Top
  10
0.8898
  20
0.4567
  42
0
  0
SEQEND
  0
POLYLINE
  8
Top
  6
CONTINUOUS
  66
1
  70
0
  40
0.0039
  41
0.0039
  0
VERTEX
  8
Top
  10
0.9429
  20
0.5118
  42
1
  0
VERTEX
  8
Top
  10
0.9469
  20
0.5118
  42
1
  0
VERTEX
  8
Top
  10
0.9429
  20
0.5118
  42
1
  0
SEQEND
  0
POLYLINE
  8
Top
  6
CONTINUOUS
  66
1
  70
0
  40
0.0039
  41
0.0039
  0
VERTEX
  8
Top
  10
0.8878
  20
0.4567
  42
1
  0
VERTEX
  8
Top
  10
0.8917
  20
0.4567
  42
1
  0
VERTEX
  8
Top
  10
0.8878
  20
0.4567
  42
1
  0
SEQEND
  0
POLYLINE
  8
Top
  6
CONTINUOUS
  66
1
  70
0
  40
0.0079
  41
0.0079
  0
VERTEX
  8
Top
  10
0.7992
  20
0.2264
  42
0
  0
VERTEX
  8
Top
  10
0.7992
  20
0.3661
  42
0
  0
SEQEND
  0
POLYLINE
  8
Top
  6
CONTINUOUS
  66
1
  70
0
  40
0.0039
  41
0.0039
  0
VERTEX
  8
Top
  10
0.7972
  20
0.2264
  42
1
  0
VERTEX
  8
Top
  10
0.8012
  20
0.2264
  42
1
  0
VERTEX
  8
Top
  10
0.7972
  20
0.2264
  42
1
  0
SEQEND
  0
POLYLINE
  8
Top
  6
CONTINUOUS
  66
1
  70
0
  40
0.0039
  41
0.0039
  0
VERTEX
  8
Top
  10
0.7972
  20
0.3661
  42
1
  0
VERTEX
  8
Top
  10
0.8012
  20
0.3661
  42
1
  0
VERTEX
  8
Top
  10
0.7972
  20
0.3661
  42
1
  0
SEQEND
  0
POLYLINE
  8
Top
  6
CONTINUOUS
  66
1
  70
0
  40
0.0079
  41
0.0079
  0
VERTEX
  8
Top
  10
0.7992
  20
0.3661
  42
0
  0
VERTEX
  8
Top
  10
0.8898
  20
0.4567
  42
0
  0
SEQEND
  0
POLYLINE
  8
Top
  6
CONTINUOUS
  66
1
  70
0
  40
0.0039
  41
0.0039
  0
VERTEX
  8
Top
  10
0.7972
  20
0.3661
  42
1
  0
VERTEX
  8
Top
  10
0.8012
  20
0.3661
  42
1
  0
VERTEX
  8
Top
  10
0.7972
  20
0.3661
  42
1
  0
SEQEND
  0
POLYLINE
  8
Top
  6
CONTINUOUS
  66
1
  70
0
  40
0.0039
  41
0.0039
  0
VERTEX
  8
Top
  10
0.8878
  20
0.4567
  42
1
  0
VERTEX
  8
Top
  10
0.8917
  20
0.4567
  42
1
  0
VERTEX
  8
Top
  10
0.8878
  20
0.4567
  42
1
  0
SEQEND
  0
POLYLINE
  8
Top
  6
CONTINUOUS
  66
1
  70
0
  40
0.0079
  41
0.0079
  0
VERTEX
  8
Top
  10
0.6693
  20
0.1929
  42
0
  0
VERTEX
  8
Top
  10
0.7657
  20
0.1929
  42
0
  0
SEQEND
  0
POLYLINE
  8
Top
  6
CONTINUOUS
  66
1
  70
0
  40
0.0039
  41
0.0039
  0
VERTEX
  8
Top
  10
0.6673
  20
0.1929
  42
1
  0
VERTEX
  8
Top
  10
0.6713
  20
0.1929
  42
1
  0
VERTEX
  8
Top
  10
0.6673
  20
0.1929
  42
1
  0
SEQEND
  0
POLYLINE
  8
Top
  6
CONTINUOUS
  66
1
  70
0
  40
0.0039
  41
0.0039
  0
VERTEX
  8
Top
  10
0.7638
  20
0.1929
  42
1
  0
VERTEX
  8
Top
  10
0.7677
  20
0.1929
  42
1
  0
VERTEX
  8
Top
  10
0.7638
  20
0.1929
  42
1
  0
SEQEND
  0
POLYLINE
  8
Top
  6
CONTINUOUS
  66
1
  70
0
  40
0.0079
  41
0.0079
  0
VERTEX
  8
Top
  10
0.7657
  20
0.1929
  42
0
  0
VERTEX
  8
Top
  10
0.7992
  20
0.2264
  42
0
  0
SEQEND
  0
POLYLINE
  8
Top
  6
CONTINUOUS
  66
1
  70
0
  40
0.0039
  41
0.0039
  0
VERTEX
  8
Top
  10
0.7638
  20
0.1929
  42
1
  0
VERTEX
  8
Top
  10
0.7677
  20
0.1929
  42
1
  0
VERTEX
  8
Top
  10
0.7638
  20
0.1929
  42
1
  0
SEQEND
  0
POLYLINE
  8
Top
  6
CONTINUOUS
  66
1
  70
0
  40
0.0039
  41
0.0039
  0
VERTEX
  8
Top
  10
0.7972
  20
0.2264
  42
1
  0
VERTEX
  8
Top
  10
0.8012
  20
0.2264
  42
1
  0
VERTEX
  8
Top
  10
0.7972
  20
0.2264
  42
1
  0
SEQEND
  0
POLYLINE
  8
Top
  6
CONTINUOUS
  66
1
  70
0
  40
0.0079
  41
0.0079
  0
VERTEX
  8
Top
  10
0.5052
  20
0.513
  42
0
  0
VERTEX
  8
Top
  10
0.6799
  20
0.513
  42
0
  0
SEQEND
  0
POLYLINE
  8
Top
  6
CONTINUOUS
  66
1
  70
0
  40
0.0039
  41
0.0039
  0
VERTEX
  8
Top
  10
0.5032
  20
0.513
  42
1
  0
VERTEX
  8
Top
  10
0.5072
  20
0.513
  42
1
  0
VERTEX
  8
Top
  10
0.5032
  20
0.513
  42
1
  0
SEQEND
  0
POLYLINE
  8
Top
  6
CONTINUOUS
  66
1
  70
0
  40
0.0039
  41
0.0039
  0
VERTEX
  8
Top
  10
0.678
  20
0.513
  42
1
  0
VERTEX
  8
Top
  10
0.6819
  20
0.513
  42
1
  0
VERTEX
  8
Top
  10
0.678
  20
0.513
  42
1
  0
SEQEND
  0
POLYLINE
  8
Top
  6
CONTINUOUS
  66
1
  70
0
  40
0.0079
  41
0.0079
  0
VERTEX
  8
Top
  10
0.6799
  20
0.513
  42
0
  0
VERTEX
  8
Top
  10
0.7008
  20
0.4921
  42
0
  0
SEQEND
  0
POLYLINE
  8
Top
  6
CONTINUOUS
  66
1
  70
0
  40
0.0039
  41
0.0039
  0
VERTEX
  8
Top
  10
0.678
  20
0.513
  42
1
  0
VERTEX
  8
Top
  10
0.6819
  20
0.513
  42
1
  0
VERTEX
  8
Top
  10
0.678
  20
0.513
  42
1
  0
SEQEND
  0
POLYLINE
  8
Top
  6
CONTINUOUS
  66
1
  70
0
  40
0.0039
  41
0.0039
  0
VERTEX
  8
Top
  10
0.6988
  20
0.4921
  42
1
  0
VERTEX
  8
Top
  10
0.7028
  20
0.4921
  42
1
  0
VERTEX
  8
Top
  10
0.6988
  20
0.4921
  42
1
  0
SEQEND
  0
POLYLINE
  8
Top
  6
CONTINUOUS
  66
1
  70
0
  40
0.0079
  41
0.0079
  0
VERTEX
  8
Top
  10
0.6693
  20
0.2598
  42
0
  0
VERTEX
  8
Top
  10
0.6693
  20
0.4094
  42
0
  0
SEQEND
  0
POLYLINE
  8
Top
  6
CONTINUOUS
  66
1
  70
0
  40
0.0039
  41
0.0039
  0
VERTEX
  8
Top
  10
0.6673
  20
0.2598
  42
1
  0
VERTEX
  8
Top
  10
0.6713
  20
0.2598
  42
1
  0
VERTEX
  8
Top
  10
0.6673
  20
0.2598
  42
1
  0
SEQEND
  0
POLYLINE
  8
Top
  6
CONTINUOUS
  66
1
  70
0
  40
0.0039
  41
0.0039
  0
VERTEX
  8
Top
  10
0.6673
  20
0.4094
  42
1
  0
VERTEX
  8
Top
  10
0.6713
  20
0.4094
  42
1
  0
VERTEX
  8
Top
  10
0.6673
  20
0.4094
  42
1
  0
SEQEND
  0
POLYLINE
  8
Top
  6
CONTINUOUS
  66
1
  70
0
  40
0.0079
  41
0.0079
  0
VERTEX
  8
Top
  10
0.6693
  20
0.4094
  42
0
  0
VERTEX
  8
Top
  10
0.752
  20
0.4921
  42
0
  0
SEQEND
  0
POLYLINE
  8
Top
  6
CONTINUOUS
  66
1
  70
0
  40
0.0039
  41
0.0039
  0
VERTEX
  8
Top
  10
0.6673
  20
0.4094
  42
1
  0
VERTEX
  8
Top
  10
0.6713
  20
0.4094
  42
1
  0
VERTEX
  8
Top
  10
0.6673
  20
0.4094
  42
1
  0
SEQEND
  0
POLYLINE
  8
Top
  6
CONTINUOUS
  66
1
  70
0
  40
0.0039
  41
0.0039
  0
VERTEX
  8
Top
  10
0.75
  20
0.4921
  42
1
  0
VERTEX
  8
Top
  10
0.7539
  20
0.4921
  42
1
  0
VERTEX
  8
Top
  10
0.75
  20
0.4921
  42
1
  0
SEQEND
  0
POLYLINE
  8
Top
  6
CONTINUOUS
  66
1
  70
0
  40
0.0079
  41
0.0079
  0
VERTEX
  8
Top
  10
0.7795
  20
0.7657
  42
0
  0
VERTEX
  8
Top
  10
0.7795
  20
0.6693
  42
0
  0
SEQEND
  0
POLYLINE
  8
Top
  6
CONTINUOUS
  66
1
  70
0
  40
0.0039
  41
0.0039
  0
VERTEX
  8
Top
  10
0.7776
  20
0.7657
  42
1
  0
VERTEX
  8
Top
  10
0.7815
  20
0.7657
  42
1
  0
VERTEX
  8
Top
  10
0.7776
  20
0.7657
  42
1
  0
SEQEND
  0
POLYLINE
  8
Top
  6
CONTINUOUS
  66
1
  70
0
  40
0.0039
  41
0.0039
  0
VERTEX
  8
Top
  10
0.7776
  20
0.6693
  42
1
  0
VERTEX
  8
Top
  10
0.7815
  20
0.6693
  42
1
  0
VERTEX
  8
Top
  10
0.7776
  20
0.6693
  42
1
  0
SEQEND
  0
POLYLINE
  8
Top
  6
CONTINUOUS
  66
1
  70
0
  40
0.0079
  41
0.0079
  0
VERTEX
  8
Top
  10
0.7795
  20
0.6693
  42
0
  0
VERTEX
  8
Top
  10
0.8898
  20
0.5591
  42
0
  0
SEQEND
  0
POLYLINE
  8
Top
  6
CONTINUOUS
  66
1
  70
0
  40
0.0039
  41
0.0039
  0
VERTEX
  8
Top
  10
0.7776
  20
0.6693
  42
1
  0
VERTEX
  8
Top
  10
0.7815
  20
0.6693
  42
1
  0
VERTEX
  8
Top
  10
0.7776
  20
0.6693
  42
1
  0
SEQEND
  0
POLYLINE
  8
Top
  6
CONTINUOUS
  66
1
  70
0
  40
0.0039
  41
0.0039
  0
VERTEX
  8
Top
  10
0.8878
  20
0.5591
  42
1
  0
VERTEX
  8
Top
  10
0.8917
  20
0.5591
  42
1
  0
VERTEX
  8
Top
  10
0.8878
  20
0.5591
  42
1
  0
SEQEND
  0
POLYLINE
  8
Top
  6
CONTINUOUS
  66
1
  70
0
  40
0.0079
  41
0.0079
  0
VERTEX
  8
Top
  10
0.7795
  20
0.7657
  42
0
  0
VERTEX
  8
Top
  10
0.9075
  20
0.7657
  42
0
  0
SEQEND
  0
POLYLINE
  8
Top
  6
CONTINUOUS
  66
1
  70
0
  40
0.0039
  41
0.0039
  0
VERTEX
  8
Top
  10
0.7776
  20
0.7657
  42
1
  0
VERTEX
  8
Top
  10
0.7815
  20
0.7657
  42
1
  0
VERTEX
  8
Top
  10
0.7776
  20
0.7657
  42
1
  0
SEQEND
  0
POLYLINE
  8
Top
  6
CONTINUOUS
  66
1
  70
0
  40
0.0039
  41
0.0039
  0
VERTEX
  8
Top
  10
0.9055
  20
0.7657
  42
1
  0
VERTEX
  8
Top
  10
0.9094
  20
0.7657
  42
1
  0
VERTEX
  8
Top
  10
0.9055
  20
0.7657
  42
1
  0
SEQEND
  0
POLYLINE
  8
Top
  6
CONTINUOUS
  66
1
  70
0
  40
0.0079
  41
0.0079
  0
VERTEX
  8
Top
  10
0.9075
  20
0.7657
  42
0
  0
VERTEX
  8
Top
  10
0.9094
  20
0.7638
  42
0
  0
SEQEND
  0
POLYLINE
  8
Top
  6
CONTINUOUS
  66
1
  70
0
  40
0.0039
  41
0.0039
  0
VERTEX
  8
Top
  10
0.9055
  20
0.7657
  42
1
  0
VERTEX
  8
Top
  10
0.9094
  20
0.7657
  42
1
  0
VERTEX
  8
Top
  10
0.9055
  20
0.7657
  42
1
  0
SEQEND
  0
POLYLINE
  8
Top
  6
CONTINUOUS
  66
1
  70
0
  40
0.0039
  41
0.0039
  0
VERTEX
  8
Top
  10
0.9075
  20
0.7638
  42
1
  0
VERTEX
  8
Top
  10
0.9114
  20
0.7638
  42
1
  0
VERTEX
  8
Top
  10
0.9075
  20
0.7638
  42
1
  0
SEQEND
  0
POLYLINE
  8
Top
  6
CONTINUOUS
  66
1
  70
0
  40
0.0079
  41
0.0079
  0
VERTEX
  8
Top
  10
0.4606
  20
0.311
  42
0
  0
VERTEX
  8
Top
  10
0.4213
  20
0.311
  42
0
  0
SEQEND
  0
POLYLINE
  8
Top
  6
CONTINUOUS
  66
1
  70
0
  40
0.0039
  41
0.0039
  0
VERTEX
  8
Top
  10
0.4587
  20
0.311
  42
1
  0
VERTEX
  8
Top
  10
0.4626
  20
0.311
  42
1
  0
VERTEX
  8
Top
  10
0.4587
  20
0.311
  42
1
  0
SEQEND
  0
POLYLINE
  8
Top
  6
CONTINUOUS
  66
1
  70
0
  40
0.0039
  41
0.0039
  0
VERTEX
  8
Top
  10
0.4193
  20
0.311
  42
1
  0
VERTEX
  8
Top
  10
0.4232
  20
0.311
  42
1
  0
VERTEX
  8
Top
  10
0.4193
  20
0.311
  42
1
  0
SEQEND
  0
POLYLINE
  8
Top
  6
CONTINUOUS
  66
1
  70
0
  40
0.0079
  41
0.0079
  0
VERTEX
  8
Top
  10
0.4213
  20
0.311
  42
0
  0
VERTEX
  8
Top
  10
0.4213
  20
0.4646
  42
0
  0
SEQEND
  0
POLYLINE
  8
Top
  6
CONTINUOUS
  66
1
  70
0
  40
0.0039
  41
0.0039
  0
VERTEX
  8
Top
  10
0.4193
  20
0.311
  42
1
  0
VERTEX
  8
Top
  10
0.4232
  20
0.311
  42
1
  0
VERTEX
  8
Top
  10
0.4193
  20
0.311
  42
1
  0
SEQEND
  0
POLYLINE
  8
Top
  6
CONTINUOUS
  66
1
  70
0
  40
0.0039
  41
0.0039
  0
VERTEX
  8
Top
  10
0.4193
  20
0.4646
  42
1
  0
VERTEX
  8
Top
  10
0.4232
  20
0.4646
  42
1
  0
VERTEX
  8
Top
  10
0.4193
  20
0.4646
  42
1
  0
SEQEND
  0
POLYLINE
  8
Top
  6
CONTINUOUS
  66
1
  70
0
  40
0.0079
  41
0.0079
  0
VERTEX
  8
Top
  10
0.4213
  20
0.4646
  42
0
  0
VERTEX
  8
Top
  10
0.5036
  20
0.4646
  42
0
  0
SEQEND
  0
POLYLINE
  8
Top
  6
CONTINUOUS
  66
1
  70
0
  40
0.0039
  41
0.0039
  0
VERTEX
  8
Top
  10
0.4193
  20
0.4646
  42
1
  0
VERTEX
  8
Top
  10
0.4232
  20
0.4646
  42
1
  0
VERTEX
  8
Top
  10
0.4193
  20
0.4646
  42
1
  0
SEQEND
  0
POLYLINE
  8
Top
  6
CONTINUOUS
  66
1
  70
0
  40
0.0039
  41
0.0039
  0
VERTEX
  8
Top
  10
0.5017
  20
0.4646
  42
1
  0
VERTEX
  8
Top
  10
0.5056
  20
0.4646
  42
1
  0
VERTEX
  8
Top
  10
0.5017
  20
0.4646
  42
1
  0
SEQEND
  0
POLYLINE
  8
Top
  6
CONTINUOUS
  66
1
  70
0
  40
0.0079
  41
0.0079
  0
VERTEX
  8
Top
  10
0.5036
  20
0.4646
  42
0
  0
VERTEX
  8
Top
  10
0.5052
  20
0.463
  42
0
  0
SEQEND
  0
POLYLINE
  8
Top
  6
CONTINUOUS
  66
1
  70
0
  40
0.0039
  41
0.0039
  0
VERTEX
  8
Top
  10
0.5017
  20
0.4646
  42
1
  0
VERTEX
  8
Top
  10
0.5056
  20
0.4646
  42
1
  0
VERTEX
  8
Top
  10
0.5017
  20
0.4646
  42
1
  0
SEQEND
  0
POLYLINE
  8
Top
  6
CONTINUOUS
  66
1
  70
0
  40
0.0039
  41
0.0039
  0
VERTEX
  8
Top
  10
0.5032
  20
0.463
  42
1
  0
VERTEX
  8
Top
  10
0.5072
  20
0.463
  42
1
  0
VERTEX
  8
Top
  10
0.5032
  20
0.463
  42
1
  0
SEQEND
  0
POLYLINE
  8
Top
  6
CONTINUOUS
  66
1
  70
0
  40
0.0118
  41
0.0118
  0
VERTEX
  8
Top
  10
0.5079
  20
0.6614
  42
0
  0
VERTEX
  8
Top
  10
0.5079
  20
0.5657
  42
0
  0
SEQEND
  0
POLYLINE
  8
Top
  6
CONTINUOUS
  66
1
  70
0
  40
0.0059
  41
0.0059
  0
VERTEX
  8
Top
  10
0.5049
  20
0.6614
  42
1
  0
VERTEX
  8
Top
  10
0.5108
  20
0.6614
  42
1
  0
VERTEX
  8
Top
  10
0.5049
  20
0.6614
  42
1
  0
SEQEND
  0
POLYLINE
  8
Top
  6
CONTINUOUS
  66
1
  70
0
  40
0.0059
  41
0.0059
  0
VERTEX
  8
Top
  10
0.5049
  20
0.5657
  42
1
  0
VERTEX
  8
Top
  10
0.5108
  20
0.5657
  42
1
  0
VERTEX
  8
Top
  10
0.5049
  20
0.5657
  42
1
  0
SEQEND
  0
POLYLINE
  8
Top
  6
CONTINUOUS
  66
1
  70
0
  40
0.0118
  41
0.0118
  0
VERTEX
  8
Top
  10
0.5079
  20
0.5657
  42
0
  0
VERTEX
  8
Top
  10
0.5052
  20
0.563
  42
0
  0
SEQEND
  0
POLYLINE
  8
Top
  6
CONTINUOUS
  66
1
  70
0
  40
0.0059
  41
0.0059
  0
VERTEX
  8
Top
  10
0.5049
  20
0.5657
  42
1
  0
VERTEX
  8
Top
  10
0.5108
  20
0.5657
  42
1
  0
VERTEX
  8
Top
  10
0.5049
  20
0.5657
  42
1
  0
SEQEND
  0
POLYLINE
  8
Top
  6
CONTINUOUS
  66
1
  70
0
  40
0.0059
  41
0.0059
  0
VERTEX
  8
Top
  10
0.5023
  20
0.563
  42
1
  0
VERTEX
  8
Top
  10
0.5082
  20
0.563
  42
1
  0
VERTEX
  8
Top
  10
0.5023
  20
0.563
  42
1
  0
SEQEND
  0
POLYLINE
  8
Top
  6
CONTINUOUS
  66
1
  70
0
  40
0.0118
  41
0.0118
  0
VERTEX
  8
Top
  10
0.5079
  20
0.6614
  42
0
  0
VERTEX
  8
Top
  10
0.5787
  20
0.6614
  42
0
  0
SEQEND
  0
POLYLINE
  8
Top
  6
CONTINUOUS
  66
1
  70
0
  40
0.0059
  41
0.0059
  0
VERTEX
  8
Top
  10
0.5049
  20
0.6614
  42
1
  0
VERTEX
  8
Top
  10
0.5108
  20
0.6614
  42
1
  0
VERTEX
  8
Top
  10
0.5049
  20
0.6614
  42
1
  0
SEQEND
  0
POLYLINE
  8
Top
  6
CONTINUOUS
  66
1
  70
0
  40
0.0059
  41
0.0059
  0
VERTEX
  8
Top
  10
0.5758
  20
0.6614
  42
1
  0
VERTEX
  8
Top
  10
0.5817
  20
0.6614
  42
1
  0
VERTEX
  8
Top
  10
0.5758
  20
0.6614
  42
1
  0
SEQEND
  0
POLYLINE
  8
Top
  6
CONTINUOUS
  66
1
  70
0
  40
0.0118
  41
0.0118
  0
VERTEX
  8
Top
  10
0.5787
  20
0.6614
  42
0
  0
VERTEX
  8
Top
  10
0.6496
  20
0.7323
  42
0
  0
SEQEND
  0
POLYLINE
  8
Top
  6
CONTINUOUS
  66
1
  70
0
  40
0.0059
  41
0.0059
  0
VERTEX
  8
Top
  10
0.5758
  20
0.6614
  42
1
  0
VERTEX
  8
Top
  10
0.5817
  20
0.6614
  42
1
  0
VERTEX
  8
Top
  10
0.5758
  20
0.6614
  42
1
  0
SEQEND
  0
POLYLINE
  8
Top
  6
CONTINUOUS
  66
1
  70
0
  40
0.0059
  41
0.0059
  0
VERTEX
  8
Top
  10
0.6467
  20
0.7323
  42
1
  0
VERTEX
  8
Top
  10
0.6526
  20
0.7323
  42
1
  0
VERTEX
  8
Top
  10
0.6467
  20
0.7323
  42
1
  0
SEQEND
  0
POLYLINE
  8
Top
  6
CONTINUOUS
  66
1
  70
0
  40
0.0118
  41
0.0118
  0
VERTEX
  8
Top
  10
0.9291
  20
0.2244
  42
0
  0
VERTEX
  8
Top
  10
0.9291
  20
0.4213
  42
0
  0
SEQEND
  0
POLYLINE
  8
Top
  6
CONTINUOUS
  66
1
  70
0
  40
0.0059
  41
0.0059
  0
VERTEX
  8
Top
  10
0.9262
  20
0.2244
  42
1
  0
VERTEX
  8
Top
  10
0.9321
  20
0.2244
  42
1
  0
VERTEX
  8
Top
  10
0.9262
  20
0.2244
  42
1
  0
SEQEND
  0
POLYLINE
  8
Top
  6
CONTINUOUS
  66
1
  70
0
  40
0.0059
  41
0.0059
  0
VERTEX
  8
Top
  10
0.9262
  20
0.4213
  42
1
  0
VERTEX
  8
Top
  10
0.9321
  20
0.4213
  42
1
  0
VERTEX
  8
Top
  10
0.9262
  20
0.4213
  42
1
  0
SEQEND
  0
POLYLINE
  8
Top
  6
CONTINUOUS
  66
1
  70
0
  40
0.0118
  41
0.0118
  0
VERTEX
  8
Top
  10
0.9291
  20
0.4213
  42
0
  0
VERTEX
  8
Top
  10
0.9646
  20
0.4567
  42
0
  0
SEQEND
  0
POLYLINE
  8
Top
  6
CONTINUOUS
  66
1
  70
0
  40
0.0059
  41
0.0059
  0
VERTEX
  8
Top
  10
0.9262
  20
0.4213
  42
1
  0
VERTEX
  8
Top
  10
0.9321
  20
0.4213
  42
1
  0
VERTEX
  8
Top
  10
0.9262
  20
0.4213
  42
1
  0
SEQEND
  0
POLYLINE
  8
Top
  6
CONTINUOUS
  66
1
  70
0
  40
0.0059
  41
0.0059
  0
VERTEX
  8
Top
  10
0.9616
  20
0.4567
  42
1
  0
VERTEX
  8
Top
  10
0.9675
  20
0.4567
  42
1
  0
VERTEX
  8
Top
  10
0.9616
  20
0.4567
  42
1
  0
SEQEND
  0
POLYLINE
  8
Top
  6
CONTINUOUS
  66
1
  70
0
  40
0.0118
  41
0.0118
  0
VERTEX
  8
Top
  10
0.5052
  20
0.563
  42
0
  0
VERTEX
  8
Top
  10
0.622
  20
0.563
  42
0
  0
SEQEND
  0
POLYLINE
  8
Top
  6
CONTINUOUS
  66
1
  70
0
  40
0.0059
  41
0.0059
  0
VERTEX
  8
Top
  10
0.5023
  20
0.563
  42
1
  0
VERTEX
  8
Top
  10
0.5082
  20
0.563
  42
1
  0
VERTEX
  8
Top
  10
0.5023
  20
0.563
  42
1
  0
SEQEND
  0
POLYLINE
  8
Top
  6
CONTINUOUS
  66
1
  70
0
  40
0.0059
  41
0.0059
  0
VERTEX
  8
Top
  10
0.6191
  20
0.563
  42
1
  0
VERTEX
  8
Top
  10
0.625
  20
0.563
  42
1
  0
VERTEX
  8
Top
  10
0.6191
  20
0.563
  42
1
  0
SEQEND
  0
POLYLINE
  8
Top
  6
CONTINUOUS
  66
1
  70
0
  40
0.0079
  41
0.0079
  0
VERTEX
  8
Top
  10
0.8543
  20
0.3031
  42
0
  0
VERTEX
  8
Top
  10
0.8543
  20
0.2992
  42
0
  0
SEQEND
  0
POLYLINE
  8
Top
  6
CONTINUOUS
  66
1
  70
0
  40
0.0039
  41
0.0039
  0
VERTEX
  8
Top
  10
0.8524
  20
0.3031
  42
1
  0
VERTEX
  8
Top
  10
0.8563
  20
0.3031
  42
1
  0
VERTEX
  8
Top
  10
0.8524
  20
0.3031
  42
1
  0
SEQEND
  0
POLYLINE
  8
Top
  6
CONTINUOUS
  66
1
  70
0
  40
0.0039
  41
0.0039
  0
VERTEX
  8
Top
  10
0.8524
  20
0.2992
  42
1
  0
VERTEX
  8
Top
  10
0.8563
  20
0.2992
  42
1
  0
VERTEX
  8
Top
  10
0.8524
  20
0.2992
  42
1
  0
SEQEND
  0
POLYLINE
  8
Top
  6
CONTINUOUS
  66
1
  70
0
  40
0.0079
  41
0.0079
  0
VERTEX
  8
Top
  10
0.8543
  20
0.2992
  42
0
  0
VERTEX
  8
Top
  10
0.9291
  20
0.2244
  42
0
  0
SEQEND
  0
POLYLINE
  8
Top
  6
CONTINUOUS
  66
1
  70
0
  40
0.0039
  41
0.0039
  0
VERTEX
  8
Top
  10
0.8524
  20
0.2992
  42
1
  0
VERTEX
  8
Top
  10
0.8563
  20
0.2992
  42
1
  0
VERTEX
  8
Top
  10
0.8524
  20
0.2992
  42
1
  0
SEQEND
  0
POLYLINE
  8
Top
  6
CONTINUOUS
  66
1
  70
0
  40
0.0039
  41
0.0039
  0
VERTEX
  8
Top
  10
0.9272
  20
0.2244
  42
1
  0
VERTEX
  8
Top
  10
0.9311
  20
0.2244
  42
1
  0
VERTEX
  8
Top
  10
0.9272
  20
0.2244
  42
1
  0
SEQEND
  0
POLYLINE
  8
Top
  6
CONTINUOUS
  66
1
  70
0
  40
0.0197
  41
0.0197
  0
VERTEX
  8
Top
  10
0.9291
  20
0.2244
  42
0
  0
VERTEX
  8
Top
  10
0.9291
  20
0.1614
  42
0
  0
SEQEND
  0
POLYLINE
  8
Top
  6
CONTINUOUS
  66
1
  70
0
  40
0.0098
  41
0.0098
  0
VERTEX
  8
Top
  10
0.9242
  20
0.2244
  42
1
  0
VERTEX
  8
Top
  10
0.9341
  20
0.2244
  42
1
  0
VERTEX
  8
Top
  10
0.9242
  20
0.2244
  42
1
  0
SEQEND
  0
POLYLINE
  8
Top
  6
CONTINUOUS
  66
1
  70
0
  40
0.0098
  41
0.0098
  0
VERTEX
  8
Top
  10
0.9242
  20
0.1614
  42
1
  0
VERTEX
  8
Top
  10
0.9341
  20
0.1614
  42
1
  0
VERTEX
  8
Top
  10
0.9242
  20
0.1614
  42
1
  0
SEQEND
  0
POLYLINE
  8
Top
  6
CONTINUOUS
  66
1
  70
0
  40
0.0197
  41
0.0197
  0
VERTEX
  8
Top
  10
0.9291
  20
0.1614
  42
0
  0
VERTEX
  8
Top
  10
0.9449
  20
0.1457
  42
0
  0
SEQEND
  0
POLYLINE
  8
Top
  6
CONTINUOUS
  66
1
  70
0
  40
0.0098
  41
0.0098
  0
VERTEX
  8
Top
  10
0.9242
  20
0.1614
  42
1
  0
VERTEX
  8
Top
  10
0.9341
  20
0.1614
  42
1
  0
VERTEX
  8
Top
  10
0.9242
  20
0.1614
  42
1
  0
SEQEND
  0
POLYLINE
  8
Top
  6
CONTINUOUS
  66
1
  70
0
  40
0.0098
  41
0.0098
  0
VERTEX
  8
Top
  10
0.94
  20
0.1457
  42
1
  0
VERTEX
  8
Top
  10
0.9498
  20
0.1457
  42
1
  0
VERTEX
  8
Top
  10
0.94
  20
0.1457
  42
1
  0
SEQEND
  0
POLYLINE
  8
Top
  6
CONTINUOUS
  66
1
  70
0
  40
0.0197
  41
0.0197
  0
VERTEX
  8
Top
  10
0.9449
  20
0.1457
  42
0
  0
VERTEX
  8
Top
  10
1.0118
  20
0.1457
  42
0
  0
SEQEND
  0
POLYLINE
  8
Top
  6
CONTINUOUS
  66
1
  70
0
  40
0.0098
  41
0.0098
  0
VERTEX
  8
Top
  10
0.94
  20
0.1457
  42
1
  0
VERTEX
  8
Top
  10
0.9498
  20
0.1457
  42
1
  0
VERTEX
  8
Top
  10
0.94
  20
0.1457
  42
1
  0
SEQEND
  0
POLYLINE
  8
Top
  6
CONTINUOUS
  66
1
  70
0
  40
0.0098
  41
0.0098
  0
VERTEX
  8
Top
  10
1.0069
  20
0.1457
  42
1
  0
VERTEX
  8
Top
  10
1.0167
  20
0.1457
  42
1
  0
VERTEX
  8
Top
  10
1.0069
  20
0.1457
  42
1
  0
SEQEND
  0
POLYLINE
  8
Top
  6
CONTINUOUS
  66
1
  70
0
  40
0.0197
  41
0.0197
  0
VERTEX
  8
Top
  10
1.0118
  20
0.1457
  42
0
  0
VERTEX
  8
Top
  10
1.2559
  20
0.3898
  42
0
  0
SEQEND
  0
POLYLINE
  8
Top
  6
CONTINUOUS
  66
1
  70
0
  40
0.0098
  41
0.0098
  0
VERTEX
  8
Top
  10
1.0069
  20
0.1457
  42
1
  0
VERTEX
  8
Top
  10
1.0167
  20
0.1457
  42
1
  0
VERTEX
  8
Top
  10
1.0069
  20
0.1457
  42
1
  0
SEQEND
  0
POLYLINE
  8
Top
  6
CONTINUOUS
  66
1
  70
0
  40
0.0098
  41
0.0098
  0
VERTEX
  8
Top
  10
1.251
  20
0.3898
  42
1
  0
VERTEX
  8
Top
  10
1.2608
  20
0.3898
  42
1
  0
VERTEX
  8
Top
  10
1.251
  20
0.3898
  42
1
  0
SEQEND
  0
POLYLINE
  8
Top
  6
CONTINUOUS
  66
1
  70
0
  40
0.0079
  41
0.0079
  0
VERTEX
  8
Top
  10
0.9646
  20
0.5591
  42
0
  0
VERTEX
  8
Top
  10
1.0236
  20
0.5591
  42
0
  0
SEQEND
  0
POLYLINE
  8
Top
  6
CONTINUOUS
  66
1
  70
0
  40
0.0039
  41
0.0039
  0
VERTEX
  8
Top
  10
0.9626
  20
0.5591
  42
1
  0
VERTEX
  8
Top
  10
0.9665
  20
0.5591
  42
1
  0
VERTEX
  8
Top
  10
0.9626
  20
0.5591
  42
1
  0
SEQEND
  0
POLYLINE
  8
Top
  6
CONTINUOUS
  66
1
  70
0
  40
0.0039
  41
0.0039
  0
VERTEX
  8
Top
  10
1.0217
  20
0.5591
  42
1
  0
VERTEX
  8
Top
  10
1.0256
  20
0.5591
  42
1
  0
VERTEX
  8
Top
  10
1.0217
  20
0.5591
  42
1
  0
SEQEND
  0
POLYLINE
  8
Top
  6
CONTINUOUS
  66
1
  70
0
  40
0.0079
  41
0.0079
  0
VERTEX
  8
Top
  10
1.0236
  20
0.5591
  42
0
  0
VERTEX
  8
Top
  10
1.0394
  20
0.5433
  42
0
  0
SEQEND
  0
POLYLINE
  8
Top
  6
CONTINUOUS
  66
1
  70
0
  40
0.0039
  41
0.0039
  0
VERTEX
  8
Top
  10
1.0217
  20
0.5591
  42
1
  0
VERTEX
  8
Top
  10
1.0256
  20
0.5591
  42
1
  0
VERTEX
  8
Top
  10
1.0217
  20
0.5591
  42
1
  0
SEQEND
  0
POLYLINE
  8
Top
  6
CONTINUOUS
  66
1
  70
0
  40
0.0039
  41
0.0039
  0
VERTEX
  8
Top
  10
1.0374
  20
0.5433
  42
1
  0
VERTEX
  8
Top
  10
1.0413
  20
0.5433
  42
1
  0
VERTEX
  8
Top
  10
1.0374
  20
0.5433
  42
1
  0
SEQEND
  0
POLYLINE
  8
Top
  6
CONTINUOUS
  66
1
  70
0
  40
0.0079
  41
0.0079
  0
VERTEX
  8
Top
  10
1.0394
  20
0.5433
  42
0
  0
VERTEX
  8
Top
  10
1.1024
  20
0.5433
  42
0
  0
SEQEND
  0
POLYLINE
  8
Top
  6
CONTINUOUS
  66
1
  70
0
  40
0.0039
  41
0.0039
  0
VERTEX
  8
Top
  10
1.0374
  20
0.5433
  42
1
  0
VERTEX
  8
Top
  10
1.0413
  20
0.5433
  42
1
  0
VERTEX
  8
Top
  10
1.0374
  20
0.5433
  42
1
  0
SEQEND
  0
POLYLINE
  8
Top
  6
CONTINUOUS
  66
1
  70
0
  40
0.0039
  41
0.0039
  0
VERTEX
  8
Top
  10
1.1004
  20
0.5433
  42
1
  0
VERTEX
  8
Top
  10
1.1043
  20
0.5433
  42
1
  0
VERTEX
  8
Top
  10
1.1004
  20
0.5433
  42
1
  0
SEQEND
  0
POLYLINE
  8
Top
  6
CONTINUOUS
  66
1
  70
0
  40
0.0079
  41
0.0079
  0
VERTEX
  8
Top
  10
1.1024
  20
0.5433
  42
0
  0
VERTEX
  8
Top
  10
1.1024
  20
0.5512
  42
0
  0
SEQEND
  0
POLYLINE
  8
Top
  6
CONTINUOUS
  66
1
  70
0
  40
0.0039
  41
0.0039
  0
VERTEX
  8
Top
  10
1.1004
  20
0.5433
  42
1
  0
VERTEX
  8
Top
  10
1.1043
  20
0.5433
  42
1
  0
VERTEX
  8
Top
  10
1.1004
  20
0.5433
  42
1
  0
SEQEND
  0
POLYLINE
  8
Top
  6
CONTINUOUS
  66
1
  70
0
  40
0.0039
  41
0.0039
  0
VERTEX
  8
Top
  10
1.1004
  20
0.5512
  42
1
  0
VERTEX
  8
Top
  10
1.1043
  20
0.5512
  42
1
  0
VERTEX
  8
Top
  10
1.1004
  20
0.5512
  42
1
  0
SEQEND
  0
POLYLINE
  8
Top
  6
CONTINUOUS
  66
1
  70
0
  40
0.0079
  41
0.0079
  0
VERTEX
  8
Top
  10
1.1024
  20
0.5512
  42
0
  0
VERTEX
  8
Top
  10
1.2173
  20
0.5512
  42
0
  0
SEQEND
  0
POLYLINE
  8
Top
  6
CONTINUOUS
  66
1
  70
0
  40
0.0039
  41
0.0039
  0
VERTEX
  8
Top
  10
1.1004
  20
0.5512
  42
1
  0
VERTEX
  8
Top
  10
1.1043
  20
0.5512
  42
1
  0
VERTEX
  8
Top
  10
1.1004
  20
0.5512
  42
1
  0
SEQEND
  0
POLYLINE
  8
Top
  6
CONTINUOUS
  66
1
  70
0
  40
0.0039
  41
0.0039
  0
VERTEX
  8
Top
  10
1.2154
  20
0.5512
  42
1
  0
VERTEX
  8
Top
  10
1.2193
  20
0.5512
  42
1
  0
VERTEX
  8
Top
  10
1.2154
  20
0.5512
  42
1
  0
SEQEND
  0
POLYLINE
  8
Top
  6
CONTINUOUS
  66
1
  70
0
  40
0.0079
  41
0.0079
  0
VERTEX
  8
Top
  10
1.2173
  20
0.5512
  42
0
  0
VERTEX
  8
Top
  10
1.2559
  20
0.5898
  42
0
  0
SEQEND
  0
POLYLINE
  8
Top
  6
CONTINUOUS
  66
1
  70
0
  40
0.0039
  41
0.0039
  0
VERTEX
  8
Top
  10
1.2154
  20
0.5512
  42
1
  0
VERTEX
  8
Top
  10
1.2193
  20
0.5512
  42
1
  0
VERTEX
  8
Top
  10
1.2154
  20
0.5512
  42
1
  0
SEQEND
  0
POLYLINE
  8
Top
  6
CONTINUOUS
  66
1
  70
0
  40
0.0039
  41
0.0039
  0
VERTEX
  8
Top
  10
1.2539
  20
0.5898
  42
1
  0
VERTEX
  8
Top
  10
1.2579
  20
0.5898
  42
1
  0
VERTEX
  8
Top
  10
1.2539
  20
0.5898
  42
1
  0
SEQEND
  0
POLYLINE
  8
Bottom
  6
CONTINUOUS
  66
1
  70
0
  40
0.0591
  41
0.0591
  0
VERTEX
  8
Bottom
  10
0.1476
  20
0.8661
  42
1
  0
VERTEX
  8
Bottom
  10
0.0886
  20
0.8661
  42
1
  0
VERTEX
  8
Bottom
  10
0.1476
  20
0.8661
  42
1
  0
SEQEND
  0
POLYLINE
  8
Bottom
  6
CONTINUOUS
  66
1
  70
0
  40
0.0591
  41
0.0591
  0
VERTEX
  8
Bottom
  10
0.1476
  20
0.1181
  42
1
  0
VERTEX
  8
Bottom
  10
0.0886
  20
0.1181
  42
1
  0
VERTEX
  8
Bottom
  10
0.1476
  20
0.1181
  42
1
  0
SEQEND
  0
POLYLINE
  8
Bottom
  6
CONTINUOUS
  66
1
  70
0
  40
0.037
  41
0.037
  0
VERTEX
  8
Bottom
  10
1.2744
  20
0.3898
  42
1
  0
VERTEX
  8
Bottom
  10
1.2374
  20
0.3898
  42
1
  0
VERTEX
  8
Bottom
  10
1.2744
  20
0.3898
  42
1
  0
SEQEND
  0
POLYLINE
  8
Bottom
  6
CONTINUOUS
  66
1
  70
0
  40
0.065
  41
0.065
  0
VERTEX
  8
Bottom
  10
0.1506
  20
0.7008
  42
1
  0
VERTEX
  8
Bottom
  10
0.0856
  20
0.7008
  42
1
  0
VERTEX
  8
Bottom
  10
0.1506
  20
0.7008
  42
1
  0
SEQEND
  0
POLYLINE
  8
Bottom
  6
CONTINUOUS
  66
1
  70
0
  40
0.065
  41
0.065
  0
VERTEX
  8
Bottom
  10
0.1506
  20
0.2717
  42
1
  0
VERTEX
  8
Bottom
  10
0.0856
  20
0.2717
  42
1
  0
VERTEX
  8
Bottom
  10
0.1506
  20
0.2717
  42
1
  0
SEQEND
  0
POLYLINE
  8
Bottom
  6
CONTINUOUS
  66
1
  70
0
  40
0.037
  41
0.037
  0
VERTEX
  8
Bottom
  10
0.1366
  20
0.5394
  42
1
  0
VERTEX
  8
Bottom
  10
0.0996
  20
0.5394
  42
1
  0
VERTEX
  8
Bottom
  10
0.1366
  20
0.5394
  42
1
  0
SEQEND
  0
POLYLINE
  8
Bottom
  6
CONTINUOUS
  66
1
  70
0
  40
0.037
  41
0.037
  0
VERTEX
  8
Bottom
  10
0.1366
  20
0.4331
  42
1
  0
VERTEX
  8
Bottom
  10
0.0996
  20
0.4331
  42
1
  0
VERTEX
  8
Bottom
  10
0.1366
  20
0.4331
  42
1
  0
SEQEND
  0
POLYLINE
  8
Bottom
  6
CONTINUOUS
  66
1
  70
0
  40
0.0098
  41
0.0098
  0
VERTEX
  8
Bottom
  10
0.5207
  20
0.189
  42
1
  0
VERTEX
  8
Bottom
  10
0.5108
  20
0.189
  42
1
  0
VERTEX
  8
Bottom
  10
0.5207
  20
0.189
  42
1
  0
SEQEND
  0
POLYLINE
  8
Bottom
  6
CONTINUOUS
  66
1
  70
0
  40
0.0098
  41
0.0098
  0
VERTEX
  8
Bottom
  10
0.4616
  20
0.7638
  42
1
  0
VERTEX
  8
Bottom
  10
0.4518
  20
0.7638
  42
1
  0
VERTEX
  8
Bottom
  10
0.4616
  20
0.7638
  42
1
  0
SEQEND
  0
POLYLINE
  8
Bottom
  6
CONTINUOUS
  66
1
  70
0
  40
0.0098
  41
0.0098
  0
VERTEX
  8
Bottom
  10
1.0404
  20
0.315
  42
1
  0
VERTEX
  8
Bottom
  10
1.0305
  20
0.315
  42
1
  0
VERTEX
  8
Bottom
  10
1.0404
  20
0.315
  42
1
  0
SEQEND
  0
POLYLINE
  8
Bottom
  6
CONTINUOUS
  66
1
  70
0
  40
0.0098
  41
0.0098
  0
VERTEX
  8
Bottom
  10
0.8593
  20
0.3031
  42
1
  0
VERTEX
  8
Bottom
  10
0.8494
  20
0.3031
  42
1
  0
VERTEX
  8
Bottom
  10
0.8593
  20
0.3031
  42
1
  0
SEQEND
  0
POLYLINE
  8
Bottom
  6
CONTINUOUS
  66
1
  70
0
  40
0.0098
  41
0.0098
  0
VERTEX
  8
Bottom
  10
0.627
  20
0.563
  42
1
  0
VERTEX
  8
Bottom
  10
0.6171
  20
0.563
  42
1
  0
VERTEX
  8
Bottom
  10
0.627
  20
0.563
  42
1
  0
SEQEND
  0
POLYLINE
  8
Bottom
  6
CONTINUOUS
  66
1
  70
0
  40
0.037
  41
0.037
  0
VERTEX
  8
Bottom
  10
1.2744
  20
0.4898
  42
1
  0
VERTEX
  8
Bottom
  10
1.2374
  20
0.4898
  42
1
  0
VERTEX
  8
Bottom
  10
1.2744
  20
0.4898
  42
1
  0
SEQEND
  0
POLYLINE
  8
Bottom
  6
CONTINUOUS
  66
1
  70
0
  40
0.037
  41
0.037
  0
VERTEX
  8
Bottom
  10
1.2744
  20
0.5898
  42
1
  0
VERTEX
  8
Bottom
  10
1.2374
  20
0.5898
  42
1
  0
VERTEX
  8
Bottom
  10
1.2744
  20
0.5898
  42
1
  0
SEQEND
  0
POLYLINE
  8
Bottom
  6
CONTINUOUS
  66
1
  70
0
  40
0.0118
  41
0.0118
  0
VERTEX
  8
Bottom
  10
0.5157
  20
0.189
  42
0
  0
VERTEX
  8
Bottom
  10
0.9094
  20
0.189
  42
0
  0
SEQEND
  0
POLYLINE
  8
Bottom
  6
CONTINUOUS
  66
1
  70
0
  40
0.0059
  41
0.0059
  0
VERTEX
  8
Bottom
  10
0.5128
  20
0.189
  42
1
  0
VERTEX
  8
Bottom
  10
0.5187
  20
0.189
  42
1
  0
VERTEX
  8
Bottom
  10
0.5128
  20
0.189
  42
1
  0
SEQEND
  0
POLYLINE
  8
Bottom
  6
CONTINUOUS
  66
1
  70
0
  40
0.0059
  41
0.0059
  0
VERTEX
  8
Bottom
  10
0.9065
  20
0.189
  42
1
  0
VERTEX
  8
Bottom
  10
0.9124
  20
0.189
  42
1
  0
VERTEX
  8
Bottom
  10
0.9065
  20
0.189
  42
1
  0
SEQEND
  0
POLYLINE
  8
Bottom
  6
CONTINUOUS
  66
1
  70
0
  40
0.0118
  41
0.0118
  0
VERTEX
  8
Bottom
  10
0.9094
  20
0.189
  42
0
  0
VERTEX
  8
Bottom
  10
1.0354
  20
0.315
  42
0
  0
SEQEND
  0
POLYLINE
  8
Bottom
  6
CONTINUOUS
  66
1
  70
0
  40
0.0059
  41
0.0059
  0
VERTEX
  8
Bottom
  10
0.9065
  20
0.189
  42
1
  0
VERTEX
  8
Bottom
  10
0.9124
  20
0.189
  42
1
  0
VERTEX
  8
Bottom
  10
0.9065
  20
0.189
  42
1
  0
SEQEND
  0
POLYLINE
  8
Bottom
  6
CONTINUOUS
  66
1
  70
0
  40
0.0059
  41
0.0059
  0
VERTEX
  8
Bottom
  10
1.0325
  20
0.315
  42
1
  0
VERTEX
  8
Bottom
  10
1.0384
  20
0.315
  42
1
  0
VERTEX
  8
Bottom
  10
1.0325
  20
0.315
  42
1
  0
SEQEND
  0
POLYLINE
  8
Bottom
  6
CONTINUOUS
  66
1
  70
0
  40
0.0118
  41
0.0118
  0
VERTEX
  8
Bottom
  10
0.5157
  20
0.189
  42
0
  0
VERTEX
  8
Bottom
  10
0.5157
  20
0.7047
  42
0
  0
SEQEND
  0
POLYLINE
  8
Bottom
  6
CONTINUOUS
  66
1
  70
0
  40
0.0059
  41
0.0059
  0
VERTEX
  8
Bottom
  10
0.5128
  20
0.189
  42
1
  0
VERTEX
  8
Bottom
  10
0.5187
  20
0.189
  42
1
  0
VERTEX
  8
Bottom
  10
0.5128
  20
0.189
  42
1
  0
SEQEND
  0
POLYLINE
  8
Bottom
  6
CONTINUOUS
  66
1
  70
0
  40
0.0059
  41
0.0059
  0
VERTEX
  8
Bottom
  10
0.5128
  20
0.7047
  42
1
  0
VERTEX
  8
Bottom
  10
0.5187
  20
0.7047
  42
1
  0
VERTEX
  8
Bottom
  10
0.5128
  20
0.7047
  42
1
  0
SEQEND
  0
POLYLINE
  8
Bottom
  6
CONTINUOUS
  66
1
  70
0
  40
0.0118
  41
0.0118
  0
VERTEX
  8
Bottom
  10
0.5157
  20
0.7047
  42
0
  0
VERTEX
  8
Bottom
  10
0.4567
  20
0.7638
  42
0
  0
SEQEND
  0
POLYLINE
  8
Bottom
  6
CONTINUOUS
  66
1
  70
0
  40
0.0059
  41
0.0059
  0
VERTEX
  8
Bottom
  10
0.5128
  20
0.7047
  42
1
  0
VERTEX
  8
Bottom
  10
0.5187
  20
0.7047
  42
1
  0
VERTEX
  8
Bottom
  10
0.5128
  20
0.7047
  42
1
  0
SEQEND
  0
POLYLINE
  8
Bottom
  6
CONTINUOUS
  66
1
  70
0
  40
0.0059
  41
0.0059
  0
VERTEX
  8
Bottom
  10
0.4537
  20
0.7638
  42
1
  0
VERTEX
  8
Bottom
  10
0.4596
  20
0.7638
  42
1
  0
VERTEX
  8
Bottom
  10
0.4537
  20
0.7638
  42
1
  0
SEQEND
  0
POLYLINE
  8
Bottom
  6
CONTINUOUS
  66
1
  70
0
  40
0.0118
  41
0.0118
  0
VERTEX
  8
Bottom
  10
0.622
  20
0.563
  42
0
  0
VERTEX
  8
Bottom
  10
0.622
  20
0.5354
  42
0
  0
SEQEND
  0
POLYLINE
  8
Bottom
  6
CONTINUOUS
  66
1
  70
0
  40
0.0059
  41
0.0059
  0
VERTEX
  8
Bottom
  10
0.6191
  20
0.563
  42
1
  0
VERTEX
  8
Bottom
  10
0.625
  20
0.563
  42
1
  0
VERTEX
  8
Bottom
  10
0.6191
  20
0.563
  42
1
  0
SEQEND
  0
POLYLINE
  8
Bottom
  6
CONTINUOUS
  66
1
  70
0
  40
0.0059
  41
0.0059
  0
VERTEX
  8
Bottom
  10
0.6191
  20
0.5354
  42
1
  0
VERTEX
  8
Bottom
  10
0.625
  20
0.5354
  42
1
  0
VERTEX
  8
Bottom
  10
0.6191
  20
0.5354
  42
1
  0
SEQEND
  0
POLYLINE
  8
Bottom
  6
CONTINUOUS
  66
1
  70
0
  40
0.0118
  41
0.0118
  0
VERTEX
  8
Bottom
  10
0.622
  20
0.5354
  42
0
  0
VERTEX
  8
Bottom
  10
0.8543
  20
0.3031
  42
0
  0
SEQEND
  0
POLYLINE
  8
Bottom
  6
CONTINUOUS
  66
1
  70
0
  40
0.0059
  41
0.0059
  0
VERTEX
  8
Bottom
  10
0.6191
  20
0.5354
  42
1
  0
VERTEX
  8
Bottom
  10
0.625
  20
0.5354
  42
1
  0
VERTEX
  8
Bottom
  10
0.6191
  20
0.5354
  42
1
  0
SEQEND
  0
POLYLINE
  8
Bottom
  6
CONTINUOUS
  66
1
  70
0
  40
0.0059
  41
0.0059
  0
VERTEX
  8
Bottom
  10
0.8514
  20
0.3031
  42
1
  0
VERTEX
  8
Bottom
  10
0.8573
  20
0.3031
  42
1
  0
VERTEX
  8
Bottom
  10
0.8514
  20
0.3031
  42
1
  0
SEQEND
  0
CIRCLE
  8
Drill_Top
  10
0.1181
  20
0.8661
  40
0.0591
  0
CIRCLE
  8
Drill_Top
  10
0.1181
  20
0.1181
  40
0.0591
  0
CIRCLE
  8
Drill_Top
  10
1.2559
  20
0.3898
  40
0.02
  0
CIRCLE
  8
Drill_Top
  10
0.1181
  20
0.7008
  40
0.0394
  0
CIRCLE
  8
Drill_Top
  10
0.1181
  20
0.2717
  40
0.0394
  0
CIRCLE
  8
Drill_Top
  10
0.1181
  20
0.5394
  40
0.02
  0
CIRCLE
  8
Drill_Top
  10
0.1181
  20
0.4331
  40
0.02
  0
CIRCLE
  8
Drill_Top
  10
0.5157
  20
0.189
  40
0.0059
  0
CIRCLE
  8
Drill_Top
  10
0.4567
  20
0.7638
  40
0.0059
  0
CIRCLE
  8
Drill_Top
  10
1.0354
  20
0.315
  40
0.0059
  0
CIRCLE
  8
Drill_Top
  10
0.8543
  20
0.3031
  40
0.0059
  0
CIRCLE
  8
Drill_Top
  10
0.622
  20
0.563
  40
0.0059
  0
CIRCLE
  8
Drill_Top
  10
1.2559
  20
0.4898
  40
0.02
  0
CIRCLE
  8
Drill_Top
  10
1.2559
  20
0.5898
  40
0.02
  0
CIRCLE
  8
Drill_Bottom
  10
0.1181
  20
0.8661
  40
0.0591
  0
CIRCLE
  8
Drill_Bottom
  10
0.1181
  20
0.1181
  40
0.0591
  0
CIRCLE
  8
Drill_Bottom
  10
1.2559
  20
0.3898
  40
0.02
  0
CIRCLE
  8
Drill_Bottom
  10
0.1181
  20
0.7008
  40
0.0394
  0
CIRCLE
  8
Drill_Bottom
  10
0.1181
  20
0.2717
  40
0.0394
  0
CIRCLE
  8
Drill_Bottom
  10
0.1181
  20
0.5394
  40
0.02
  0
CIRCLE
  8
Drill_Bottom
  10
0.1181
  20
0.4331
  40
0.02
  0
CIRCLE
  8
Drill_Bottom
  10
0.5157
  20
0.189
  40
0.0059
  0
CIRCLE
  8
Drill_Bottom
  10
0.4567
  20
0.7638
  40
0.0059
  0
CIRCLE
  8
Drill_Bottom
  10
1.0354
  20
0.315
  40
0.0059
  0
CIRCLE
  8
Drill_Bottom
  10
0.8543
  20
0.3031
  40
0.0059
  0
CIRCLE
  8
Drill_Bottom
  10
0.622
  20
0.563
  40
0.0059
  0
CIRCLE
  8
Drill_Bottom
  10
1.2559
  20
0.4898
  40
0.02
  0
CIRCLE
  8
Drill_Bottom
  10
1.2559
  20
0.5898
  40
0.02
  0
POLYLINE
  8
Bottom_Mask
  6
CONTINUOUS
  66
1
  70
0
  40
0.063
  41
0.063
  0
VERTEX
  8
Bottom_Mask
  10
0.1496
  20
0.8661
  42
1
  0
VERTEX
  8
Bottom_Mask
  10
0.0866
  20
0.8661
  42
1
  0
VERTEX
  8
Bottom_Mask
  10
0.1496
  20
0.8661
  42
1
  0
SEQEND
  0
POLYLINE
  8
Bottom_Mask
  6
CONTINUOUS
  66
1
  70
0
  40
0.063
  41
0.063
  0
VERTEX
  8
Bottom_Mask
  10
0.0866
  20
0.8661
  42
1
  0
VERTEX
  8
Bottom_Mask
  10
0.1496
  20
0.8661
  42
1
  0
VERTEX
  8
Bottom_Mask
  10
0.0866
  20
0.8661
  42
1
  0
SEQEND
  0
POLYLINE
  8
Bottom_Mask
  6
CONTINUOUS
  66
1
  70
0
  40
0.063
  41
0.063
  0
VERTEX
  8
Bottom_Mask
  10
0.1496
  20
0.1181
  42
1
  0
VERTEX
  8
Bottom_Mask
  10
0.0866
  20
0.1181
  42
1
  0
VERTEX
  8
Bottom_Mask
  10
0.1496
  20
0.1181
  42
1
  0
SEQEND
  0
POLYLINE
  8
Bottom_Mask
  6
CONTINUOUS
  66
1
  70
0
  40
0.063
  41
0.063
  0
VERTEX
  8
Bottom_Mask
  10
0.0866
  20
0.1181
  42
1
  0
VERTEX
  8
Bottom_Mask
  10
0.1496
  20
0.1181
  42
1
  0
VERTEX
  8
Bottom_Mask
  10
0.0866
  20
0.1181
  42
1
  0
SEQEND
  0
POLYLINE
  8
Bottom_Mask
  6
CONTINUOUS
  66
1
  70
0
  40
0.037
  41
0.037
  0
VERTEX
  8
Bottom_Mask
  10
1.2744
  20
0.3898
  42
1
  0
VERTEX
  8
Bottom_Mask
  10
1.2374
  20
0.3898
  42
1
  0
VERTEX
  8
Bottom_Mask
  10
1.2744
  20
0.3898
  42
1
  0
SEQEND
  0
POLYLINE
  8
Bottom_Mask
  6
CONTINUOUS
  66
1
  70
0
  40
0.037
  41
0.037
  0
VERTEX
  8
Bottom_Mask
  10
1.2374
  20
0.3898
  42
1
  0
VERTEX
  8
Bottom_Mask
  10
1.2744
  20
0.3898
  42
1
  0
VERTEX
  8
Bottom_Mask
  10
1.2374
  20
0.3898
  42
1
  0
SEQEND
  0
POLYLINE
  8
Bottom_Mask
  6
CONTINUOUS
  66
1
  70
0
  40
0.065
  41
0.065
  0
VERTEX
  8
Bottom_Mask
  10
0.1506
  20
0.7008
  42
1
  0
VERTEX
  8
Bottom_Mask
  10
0.0856
  20
0.7008
  42
1
  0
VERTEX
  8
Bottom_Mask
  10
0.1506
  20
0.7008
  42
1
  0
SEQEND
  0
POLYLINE
  8
Bottom_Mask
  6
CONTINUOUS
  66
1
  70
0
  40
0.065
  41
0.065
  0
VERTEX
  8
Bottom_Mask
  10
0.0856
  20
0.7008
  42
1
  0
VERTEX
  8
Bottom_Mask
  10
0.1506
  20
0.7008
  42
1
  0
VERTEX
  8
Bottom_Mask
  10
0.0856
  20
0.7008
  42
1
  0
SEQEND
  0
POLYLINE
  8
Bottom_Mask
  6
CONTINUOUS
  66
1
  70
0
  40
0.065
  41
0.065
  0
VERTEX
  8
Bottom_Mask
  10
0.1506
  20
0.2717
  42
1
  0
VERTEX
  8
Bottom_Mask
  10
0.0856
  20
0.2717
  42
1
  0
VERTEX
  8
Bottom_Mask
  10
0.1506
  20
0.2717
  42
1
  0
SEQEND
  0
POLYLINE
  8
Bottom_Mask
  6
CONTINUOUS
  66
1
  70
0
  40
0.065
  41
0.065
  0
VERTEX
  8
Bottom_Mask
  10
0.0856
  20
0.2717
  42
1
  0
VERTEX
  8
Bottom_Mask
  10
0.1506
  20
0.2717
  42
1
  0
VERTEX
  8
Bottom_Mask
  10
0.0856
  20
0.2717
  42
1
  0
SEQEND
  0
POLYLINE
  8
Bottom_Mask
  6
CONTINUOUS
  66
1
  70
0
  40
0.037
  41
0.037
  0
VERTEX
  8
Bottom_Mask
  10
0.1366
  20
0.5394
  42
1
  0
VERTEX
  8
Bottom_Mask
  10
0.0996
  20
0.5394
  42
1
  0
VERTEX
  8
Bottom_Mask
  10
0.1366
  20
0.5394
  42
1
  0
SEQEND
  0
POLYLINE
  8
Bottom_Mask
  6
CONTINUOUS
  66
1
  70
0
  40
0.037
  41
0.037
  0
VERTEX
  8
Bottom_Mask
  10
0.0996
  20
0.5394
  42
1
  0
VERTEX
  8
Bottom_Mask
  10
0.1366
  20
0.5394
  42
1
  0
VERTEX
  8
Bottom_Mask
  10
0.0996
  20
0.5394
  42
1
  0
SEQEND
  0
POLYLINE
  8
Bottom_Mask
  6
CONTINUOUS
  66
1
  70
0
  40
0.037
  41
0.037
  0
VERTEX
  8
Bottom_Mask
  10
0.1366
  20
0.4331
  42
1
  0
VERTEX
  8
Bottom_Mask
  10
0.0996
  20
0.4331
  42
1
  0
VERTEX
  8
Bottom_Mask
  10
0.1366
  20
0.4331
  42
1
  0
SEQEND
  0
POLYLINE
  8
Bottom_Mask
  6
CONTINUOUS
  66
1
  70
0
  40
0.037
  41
0.037
  0
VERTEX
  8
Bottom_Mask
  10
0.0996
  20
0.4331
  42
1
  0
VERTEX
  8
Bottom_Mask
  10
0.1366
  20
0.4331
  42
1
  0
VERTEX
  8
Bottom_Mask
  10
0.0996
  20
0.4331
  42
1
  0
SEQEND
  0
POLYLINE
  8
Bottom_Mask
  6
CONTINUOUS
  66
1
  70
0
  40
0.037
  41
0.037
  0
VERTEX
  8
Bottom_Mask
  10
1.2744
  20
0.4898
  42
1
  0
VERTEX
  8
Bottom_Mask
  10
1.2374
  20
0.4898
  42
1
  0
VERTEX
  8
Bottom_Mask
  10
1.2744
  20
0.4898
  42
1
  0
SEQEND
  0
POLYLINE
  8
Bottom_Mask
  6
CONTINUOUS
  66
1
  70
0
  40
0.037
  41
0.037
  0
VERTEX
  8
Bottom_Mask
  10
1.2374
  20
0.4898
  42
1
  0
VERTEX
  8
Bottom_Mask
  10
1.2744
  20
0.4898
  42
1
  0
VERTEX
  8
Bottom_Mask
  10
1.2374
  20
0.4898
  42
1
  0
SEQEND
  0
POLYLINE
  8
Bottom_Mask
  6
CONTINUOUS
  66
1
  70
0
  40
0.037
  41
0.037
  0
VERTEX
  8
Bottom_Mask
  10
1.2744
  20
0.5898
  42
1
  0
VERTEX
  8
Bottom_Mask
  10
1.2374
  20
0.5898
  42
1
  0
VERTEX
  8
Bottom_Mask
  10
1.2744
  20
0.5898
  42
1
  0
SEQEND
  0
POLYLINE
  8
Bottom_Mask
  6
CONTINUOUS
  66
1
  70
0
  40
0.037
  41
0.037
  0
VERTEX
  8
Bottom_Mask
  10
1.2374
  20
0.5898
  42
1
  0
VERTEX
  8
Bottom_Mask
  10
1.2744
  20
0.5898
  42
1
  0
VERTEX
  8
Bottom_Mask
  10
1.2374
  20
0.5898
  42
1
  0
SEQEND
  0
POLYLINE
  8
Bottom_Silk
  6
CONTINUOUS
  66
1
  70
0
  40
0.0062
  41
0.0062
  0
VERTEX
  8
Bottom_Silk
  10
1.185
  20
0.4054
  42
0
  0
VERTEX
  8
Bottom_Silk
  10
1.1697
  20
0.3652
  42
0
  0
VERTEX
  8
Bottom_Silk
  10
1.1544
  20
0.4054
  42
0
  0
SEQEND
  0
POLYLINE
  8
Bottom_Silk
  6
CONTINUOUS
  66
1
  70
0
  40
0.0031
  41
0.0031
  0
VERTEX
  8
Bottom_Silk
  10
1.1835
  20
0.4054
  42
1
  0
VERTEX
  8
Bottom_Silk
  10
1.1866
  20
0.4054
  42
1
  0
VERTEX
  8
Bottom_Silk
  10
1.1835
  20
0.4054
  42
1
  0
SEQEND
  0
POLYLINE
  8
Bottom_Silk
  6
CONTINUOUS
  66
1
  70
0
  40
0.0031
  41
0.0031
  0
VERTEX
  8
Bottom_Silk
  10
1.1529
  20
0.4054
  42
1
  0
VERTEX
  8
Bottom_Silk
  10
1.156
  20
0.4054
  42
1
  0
VERTEX
  8
Bottom_Silk
  10
1.1529
  20
0.4054
  42
1
  0
SEQEND
  0
POLYLINE
  8
Bottom_Silk
  6
CONTINUOUS
  66
1
  70
0
  40
0.0062
  41
0.0062
  0
VERTEX
  8
Bottom_Silk
  10
1.1134
  20
0.3958
  42
0
  0
VERTEX
  8
Bottom_Silk
  10
1.1153
  20
0.3996
  42
0
  0
VERTEX
  8
Bottom_Silk
  10
1.1191
  20
0.4035
  42
0
  0
VERTEX
  8
Bottom_Silk
  10
1.1229
  20
0.4054
  42
0
  0
VERTEX
  8
Bottom_Silk
  10
1.1306
  20
0.4054
  42
0
  0
VERTEX
  8
Bottom_Silk
  10
1.1344
  20
0.4035
  42
0
  0
VERTEX
  8
Bottom_Silk
  10
1.1382
  20
0.3996
  42
0
  0
VERTEX
  8
Bottom_Silk
  10
1.1402
  20
0.3958
  42
0
  0
VERTEX
  8
Bottom_Silk
  10
1.1421
  20
0.3901
  42
0
  0
VERTEX
  8
Bottom_Silk
  10
1.1421
  20
0.3805
  42
0
  0
VERTEX
  8
Bottom_Silk
  10
1.1402
  20
0.3748
  42
0
  0
VERTEX
  8
Bottom_Silk
  10
1.1382
  20
0.3709
  42
0
  0
VERTEX
  8
Bottom_Silk
  10
1.1344
  20
0.3671
  42
0
  0
VERTEX
  8
Bottom_Silk
  10
1.1306
  20
0.3652
  42
0
  0
VERTEX
  8
Bottom_Silk
  10
1.1229
  20
0.3652
  42
0
  0
VERTEX
  8
Bottom_Silk
  10
1.1191
  20
0.3671
  42
0
  0
VERTEX
  8
Bottom_Silk
  10
1.1153
  20
0.3709
  42
0
  0
VERTEX
  8
Bottom_Silk
  10
1.1134
  20
0.3748
  42
0
  0
SEQEND
  0
POLYLINE
  8
Bottom_Silk
  6
CONTINUOUS
  66
1
  70
0
  40
0.0031
  41
0.0031
  0
VERTEX
  8
Bottom_Silk
  10
1.1118
  20
0.3958
  42
1
  0
VERTEX
  8
Bottom_Silk
  10
1.1149
  20
0.3958
  42
1
  0
VERTEX
  8
Bottom_Silk
  10
1.1118
  20
0.3958
  42
1
  0
SEQEND
  0
POLYLINE
  8
Bottom_Silk
  6
CONTINUOUS
  66
1
  70
0
  40
0.0031
  41
0.0031
  0
VERTEX
  8
Bottom_Silk
  10
1.1118
  20
0.3748
  42
1
  0
VERTEX
  8
Bottom_Silk
  10
1.1149
  20
0.3748
  42
1
  0
VERTEX
  8
Bottom_Silk
  10
1.1118
  20
0.3748
  42
1
  0
SEQEND
  0
POLYLINE
  8
Bottom_Silk
  6
CONTINUOUS
  66
1
  70
0
  40
0.0062
  41
0.0062
  0
VERTEX
  8
Bottom_Silk
  10
1.0723
  20
0.3958
  42
0
  0
VERTEX
  8
Bottom_Silk
  10
1.0742
  20
0.3996
  42
0
  0
VERTEX
  8
Bottom_Silk
  10
1.0781
  20
0.4035
  42
0
  0
VERTEX
  8
Bottom_Silk
  10
1.0819
  20
0.4054
  42
0
  0
VERTEX
  8
Bottom_Silk
  10
1.0895
  20
0.4054
  42
0
  0
VERTEX
  8
Bottom_Silk
  10
1.0934
  20
0.4035
  42
0
  0
VERTEX
  8
Bottom_Silk
  10
1.0972
  20
0.3996
  42
0
  0
VERTEX
  8
Bottom_Silk
  10
1.0991
  20
0.3958
  42
0
  0
VERTEX
  8
Bottom_Silk
  10
1.101
  20
0.3901
  42
0
  0
VERTEX
  8
Bottom_Silk
  10
1.101
  20
0.3805
  42
0
  0
VERTEX
  8
Bottom_Silk
  10
1.0991
  20
0.3748
  42
0
  0
VERTEX
  8
Bottom_Silk
  10
1.0972
  20
0.3709
  42
0
  0
VERTEX
  8
Bottom_Silk
  10
1.0934
  20
0.3671
  42
0
  0
VERTEX
  8
Bottom_Silk
  10
1.0895
  20
0.3652
  42
0
  0
VERTEX
  8
Bottom_Silk
  10
1.0819
  20
0.3652
  42
0
  0
VERTEX
  8
Bottom_Silk
  10
1.0781
  20
0.3671
  42
0
  0
VERTEX
  8
Bottom_Silk
  10
1.0742
  20
0.3709
  42
0
  0
VERTEX
  8
Bottom_Silk
  10
1.0723
  20
0.3748
  42
0
  0
SEQEND
  0
POLYLINE
  8
Bottom_Silk
  6
CONTINUOUS
  66
1
  70
0
  40
0.0031
  41
0.0031
  0
VERTEX
  8
Bottom_Silk
  10
1.0708
  20
0.3958
  42
1
  0
VERTEX
  8
Bottom_Silk
  10
1.0739
  20
0.3958
  42
1
  0
VERTEX
  8
Bottom_Silk
  10
1.0708
  20
0.3958
  42
1
  0
SEQEND
  0
POLYLINE
  8
Bottom_Silk
  6
CONTINUOUS
  66
1
  70
0
  40
0.0031
  41
0.0031
  0
VERTEX
  8
Bottom_Silk
  10
1.0708
  20
0.3748
  42
1
  0
VERTEX
  8
Bottom_Silk
  10
1.0739
  20
0.3748
  42
1
  0
VERTEX
  8
Bottom_Silk
  10
1.0708
  20
0.3748
  42
1
  0
SEQEND
  0
POLYLINE
  8
Bottom_Silk
  6
CONTINUOUS
  66
1
  70
0
  40
0.0062
  41
0.0062
  0
VERTEX
  8
Bottom_Silk
  10
1.1574
  20
0.5111
  42
0
  0
VERTEX
  8
Bottom_Silk
  10
1.1593
  20
0.5149
  42
0
  0
VERTEX
  8
Bottom_Silk
  10
1.1631
  20
0.5187
  42
0
  0
VERTEX
  8
Bottom_Silk
  10
1.167
  20
0.5206
  42
0
  0
VERTEX
  8
Bottom_Silk
  10
1.1746
  20
0.5206
  42
0
  0
VERTEX
  8
Bottom_Silk
  10
1.1784
  20
0.5187
  42
0
  0
VERTEX
  8
Bottom_Silk
  10
1.1822
  20
0.5149
  42
0
  0
VERTEX
  8
Bottom_Silk
  10
1.1842
  20
0.5111
  42
0
  0
VERTEX
  8
Bottom_Silk
  10
1.1861
  20
0.5054
  42
0
  0
VERTEX
  8
Bottom_Silk
  10
1.1861
  20
0.4958
  42
0
  0
VERTEX
  8
Bottom_Silk
  10
1.1842
  20
0.4901
  42
0
  0
VERTEX
  8
Bottom_Silk
  10
1.1822
  20
0.4862
  42
0
  0
VERTEX
  8
Bottom_Silk
  10
1.1784
  20
0.4824
  42
0
  0
VERTEX
  8
Bottom_Silk
  10
1.1746
  20
0.4805
  42
0
  0
VERTEX
  8
Bottom_Silk
  10
1.167
  20
0.4805
  42
0
  0
VERTEX
  8
Bottom_Silk
  10
1.1631
  20
0.4824
  42
0
  0
VERTEX
  8
Bottom_Silk
  10
1.1593
  20
0.4862
  42
0
  0
VERTEX
  8
Bottom_Silk
  10
1.1574
  20
0.4901
  42
0
  0
VERTEX
  8
Bottom_Silk
  10
1.1574
  20
0.4958
  42
0
  0
VERTEX
  8
Bottom_Silk
  10
1.167
  20
0.4958
  42
0
  0
SEQEND
  0
POLYLINE
  8
Bottom_Silk
  6
CONTINUOUS
  66
1
  70
0
  40
0.0031
  41
0.0031
  0
VERTEX
  8
Bottom_Silk
  10
1.1559
  20
0.5111
  42
1
  0
VERTEX
  8
Bottom_Silk
  10
1.1589
  20
0.5111
  42
1
  0
VERTEX
  8
Bottom_Silk
  10
1.1559
  20
0.5111
  42
1
  0
SEQEND
  0
POLYLINE
  8
Bottom_Silk
  6
CONTINUOUS
  66
1
  70
0
  40
0.0031
  41
0.0031
  0
VERTEX
  8
Bottom_Silk
  10
1.1654
  20
0.4958
  42
1
  0
VERTEX
  8
Bottom_Silk
  10
1.1685
  20
0.4958
  42
1
  0
VERTEX
  8
Bottom_Silk
  10
1.1654
  20
0.4958
  42
1
  0
SEQEND
  0
POLYLINE
  8
Bottom_Silk
  6
CONTINUOUS
  66
1
  70
0
  40
0.0062
  41
0.0062
  0
VERTEX
  8
Bottom_Silk
  10
1.1183
  20
0.5206
  42
0
  0
VERTEX
  8
Bottom_Silk
  10
1.1183
  20
0.4805
  42
0
  0
VERTEX
  8
Bottom_Silk
  10
1.145
  20
0.5206
  42
0
  0
VERTEX
  8
Bottom_Silk
  10
1.145
  20
0.4805
  42
0
  0
SEQEND
  0
POLYLINE
  8
Bottom_Silk
  6
CONTINUOUS
  66
1
  70
0
  40
0.0031
  41
0.0031
  0
VERTEX
  8
Bottom_Silk
  10
1.1167
  20
0.5206
  42
1
  0
VERTEX
  8
Bottom_Silk
  10
1.1198
  20
0.5206
  42
1
  0
VERTEX
  8
Bottom_Silk
  10
1.1167
  20
0.5206
  42
1
  0
SEQEND
  0
POLYLINE
  8
Bottom_Silk
  6
CONTINUOUS
  66
1
  70
0
  40
0.0031
  41
0.0031
  0
VERTEX
  8
Bottom_Silk
  10
1.1435
  20
0.4805
  42
1
  0
VERTEX
  8
Bottom_Silk
  10
1.1466
  20
0.4805
  42
1
  0
VERTEX
  8
Bottom_Silk
  10
1.1435
  20
0.4805
  42
1
  0
SEQEND
  0
POLYLINE
  8
Bottom_Silk
  6
CONTINUOUS
  66
1
  70
0
  40
0.0062
  41
0.0062
  0
VERTEX
  8
Bottom_Silk
  10
1.1059
  20
0.5206
  42
0
  0
VERTEX
  8
Bottom_Silk
  10
1.1059
  20
0.4805
  42
0
  0
VERTEX
  8
Bottom_Silk
  10
1.0925
  20
0.4805
  42
0
  0
VERTEX
  8
Bottom_Silk
  10
1.0868
  20
0.4824
  42
0
  0
VERTEX
  8
Bottom_Silk
  10
1.0829
  20
0.4862
  42
0
  0
VERTEX
  8
Bottom_Silk
  10
1.081
  20
0.4901
  42
0
  0
VERTEX
  8
Bottom_Silk
  10
1.0791
  20
0.4958
  42
0
  0
VERTEX
  8
Bottom_Silk
  10
1.0791
  20
0.5054
  42
0
  0
VERTEX
  8
Bottom_Silk
  10
1.081
  20
0.5111
  42
0
  0
VERTEX
  8
Bottom_Silk
  10
1.0829
  20
0.5149
  42
0
  0
VERTEX
  8
Bottom_Silk
  10
1.0868
  20
0.5187
  42
0
  0
VERTEX
  8
Bottom_Silk
  10
1.0925
  20
0.5206
  42
0
  0
VERTEX
  8
Bottom_Silk
  10
1.1059
  20
0.5206
  42
0
  0
SEQEND
  0
POLYLINE
  8
Bottom_Silk
  6
CONTINUOUS
  66
1
  70
0
  40
0.0031
  41
0.0031
  0
VERTEX
  8
Bottom_Silk
  10
1.1044
  20
0.5206
  42
1
  0
VERTEX
  8
Bottom_Silk
  10
1.1074
  20
0.5206
  42
1
  0
VERTEX
  8
Bottom_Silk
  10
1.1044
  20
0.5206
  42
1
  0
SEQEND
  0
POLYLINE
  8
Bottom_Silk
  6
CONTINUOUS
  66
1
  70
0
  40
0.0062
  41
0.0062
  0
VERTEX
  8
Bottom_Silk
  10
1.1871
  20
0.6161
  42
0
  0
VERTEX
  8
Bottom_Silk
  10
1.1718
  20
0.5759
  42
0
  0
VERTEX
  8
Bottom_Silk
  10
1.1565
  20
0.6161
  42
0
  0
SEQEND
  0
POLYLINE
  8
Bottom_Silk
  6
CONTINUOUS
  66
1
  70
0
  40
0.0031
  41
0.0031
  0
VERTEX
  8
Bottom_Silk
  10
1.1856
  20
0.6161
  42
1
  0
VERTEX
  8
Bottom_Silk
  10
1.1887
  20
0.6161
  42
1
  0
VERTEX
  8
Bottom_Silk
  10
1.1856
  20
0.6161
  42
1
  0
SEQEND
  0
POLYLINE
  8
Bottom_Silk
  6
CONTINUOUS
  66
1
  70
0
  40
0.0031
  41
0.0031
  0
VERTEX
  8
Bottom_Silk
  10
1.155
  20
0.6161
  42
1
  0
VERTEX
  8
Bottom_Silk
  10
1.1581
  20
0.6161
  42
1
  0
VERTEX
  8
Bottom_Silk
  10
1.155
  20
0.6161
  42
1
  0
SEQEND
  0
POLYLINE
  8
Bottom_Silk
  6
CONTINUOUS
  66
1
  70
0
  40
0.0062
  41
0.0062
  0
VERTEX
  8
Bottom_Silk
  10
1.1327
  20
0.6161
  42
0
  0
VERTEX
  8
Bottom_Silk
  10
1.1365
  20
0.6142
  42
0
  0
VERTEX
  8
Bottom_Silk
  10
1.1403
  20
0.6103
  42
0
  0
VERTEX
  8
Bottom_Silk
  10
1.1423
  20
0.6065
  42
0
  0
VERTEX
  8
Bottom_Silk
  10
1.1442
  20
0.6008
  42
0
  0
VERTEX
  8
Bottom_Silk
  10
1.1442
  20
0.5912
  42
0
  0
VERTEX
  8
Bottom_Silk
  10
1.1423
  20
0.5855
  42
0
  0
VERTEX
  8
Bottom_Silk
  10
1.1403
  20
0.5816
  42
0
  0
VERTEX
  8
Bottom_Silk
  10
1.1365
  20
0.5778
  42
0
  0
VERTEX
  8
Bottom_Silk
  10
1.1327
  20
0.5759
  42
0
  0
VERTEX
  8
Bottom_Silk
  10
1.125
  20
0.5759
  42
0
  0
VERTEX
  8
Bottom_Silk
  10
1.1212
  20
0.5778
  42
0
  0
VERTEX
  8
Bottom_Silk
  10
1.1174
  20
0.5816
  42
0
  0
VERTEX
  8
Bottom_Silk
  10
1.1155
  20
0.5855
  42
0
  0
VERTEX
  8
Bottom_Silk
  10
1.1136
  20
0.5912
  42
0
  0
VERTEX
  8
Bottom_Silk
  10
1.1136
  20
0.6008
  42
0
  0
VERTEX
  8
Bottom_Silk
  10
1.1155
  20
0.6065
  42
0
  0
VERTEX
  8
Bottom_Silk
  10
1.1174
  20
0.6103
  42
0
  0
VERTEX
  8
Bottom_Silk
  10
1.1212
  20
0.6142
  42
0
  0
VERTEX
  8
Bottom_Silk
  10
1.125
  20
0.6161
  42
0
  0
VERTEX
  8
Bottom_Silk
  10
1.1327
  20
0.6161
  42
0
  0
SEQEND
  0
POLYLINE
  8
Bottom_Silk
  6
CONTINUOUS
  66
1
  70
0
  40
0.0031
  41
0.0031
  0
VERTEX
  8
Bottom_Silk
  10
1.1311
  20
0.6161
  42
1
  0
VERTEX
  8
Bottom_Silk
  10
1.1342
  20
0.6161
  42
1
  0
VERTEX
  8
Bottom_Silk
  10
1.1311
  20
0.6161
  42
1
  0
SEQEND
  0
ENDSEC
  0
EOF
