  0
SECTION
  2
HEADER
  9
$ACADVER
  1
AC1009
  9
$ANGDIR
  70
0
  9
$CECOLOR
  62
256
  9
$CELTYPE
  6
BYLAYER
  9
$EXTMIN
  10
0.0
  20
0.0
  9
$EXTMAX
  10
0.7087
  20
0.6693
  9
$FILLMODE
  70
1
  9
$MIRRTEXT
  70
0
  0
ENDSEC
  0
SECTION
  2
TABLES
  0
TABLE
  2
LAYER
  70
17
  0
LAYER
  2
Top_Assy
  70
64
  62
1
  6
CONTINUOUS
  0
LAYER
  2
Top_Silk
  70
64
  62
2
  6
CONTINUOUS
  0
LAYER
  2
Top_Mask
  70
64
  62
3
  6
CONTINUOUS
  0
LAYER
  2
Top_Paste
  70
64
  62
4
  6
CONTINUOUS
  0
LAYER
  2
Top
  70
64
  62
5
  6
CONTINUOUS
  0
LAYER
  2
Bottom
  70
64
  62
6
  6
CONTINUOUS
  0
LAYER
  2
Drill_Top
  70
64
  62
7
  6
CONTINUOUS
  0
LAYER
  2
Drill_Bottom
  70
64
  62
8
  6
CONTINUOUS
  0
LAYER
  2
Bottom_Paste
  70
64
  62
9
  6
CONTINUOUS
  0
LAYER
  2
Bottom_Mask
  70
64
  62
10
  6
CONTINUOUS
  0
LAYER
  2
Bottom_Silk
  70
64
  62
11
  6
CONTINUOUS
  0
LAYER
  2
Bottom_Assy
  70
64
  62
12
  6
CONTINUOUS
  0
LAYER
  2
Board_Outline
  70
64
  62
13
  6
CONTINUOUS
  0
LAYER
  2
Top_Dimension
  70
64
  62
14
  6
CONTINUOUS
  0
LAYER
  2
Bottom_Dimension
  70
64
  62
15
  6
CONTINUOUS
  0
ENDTAB
  0
ENDSEC
  0
SECTION
  2
ENTITIES
  0
SOLID
  8
Top_Assy
  10
0.0651
  20
0.2231
  11
0.0451
  21
0.2231
  12
0.0651
  22
0.243
  13
0.0451
  23
0.243
  0
SOLID
  8
Top_Assy
  10
0.0651
  20
0.3231
  11
0.0451
  21
0.3231
  12
0.0651
  22
0.3431
  13
0.0451
  23
0.3431
  0
SOLID
  8
Top_Assy
  10
0.0651
  20
0.4231
  11
0.0451
  21
0.4231
  12
0.0651
  22
0.4431
  13
0.0451
  23
0.4431
  0
SOLID
  8
Top_Assy
  10
0.3345
  20
0.3466
  11
0.3108
  21
0.3466
  12
0.3345
  22
0.3584
  13
0.3108
  23
0.3584
  0
SOLID
  8
Top_Assy
  10
0.3345
  20
0.3146
  11
0.3108
  21
0.3146
  12
0.3345
  22
0.3264
  13
0.3108
  23
0.3264
  0
POLYLINE
  8
Top_Assy
  6
CONTINUOUS
  66
1
  70
0
  40
0.006
  41
0.006
  0
VERTEX
  8
Top_Assy
  10
0.3317
  20
0.3463
  42
0
  0
VERTEX
  8
Top_Assy
  10
0.3317
  20
0.327
  42
0
  0
SEQEND
  0
POLYLINE
  8
Top_Assy
  6
CONTINUOUS
  66
1
  70
0
  40
0.003
  41
0.003
  0
VERTEX
  8
Top_Assy
  10
0.3302
  20
0.3463
  42
1
  0
VERTEX
  8
Top_Assy
  10
0.3332
  20
0.3463
  42
1
  0
VERTEX
  8
Top_Assy
  10
0.3302
  20
0.3463
  42
1
  0
SEQEND
  0
POLYLINE
  8
Top_Assy
  6
CONTINUOUS
  66
1
  70
0
  40
0.003
  41
0.003
  0
VERTEX
  8
Top_Assy
  10
0.3302
  20
0.327
  42
1
  0
VERTEX
  8
Top_Assy
  10
0.3332
  20
0.327
  42
1
  0
VERTEX
  8
Top_Assy
  10
0.3302
  20
0.327
  42
1
  0
SEQEND
  0
POLYLINE
  8
Top_Assy
  6
CONTINUOUS
  66
1
  70
0
  40
0.006
  41
0.006
  0
VERTEX
  8
Top_Assy
  10
0.314
  20
0.327
  42
0
  0
VERTEX
  8
Top_Assy
  10
0.314
  20
0.3463
  42
0
  0
SEQEND
  0
POLYLINE
  8
Top_Assy
  6
CONTINUOUS
  66
1
  70
0
  40
0.003
  41
0.003
  0
VERTEX
  8
Top_Assy
  10
0.3125
  20
0.327
  42
1
  0
VERTEX
  8
Top_Assy
  10
0.3155
  20
0.327
  42
1
  0
VERTEX
  8
Top_Assy
  10
0.3125
  20
0.327
  42
1
  0
SEQEND
  0
POLYLINE
  8
Top_Assy
  6
CONTINUOUS
  66
1
  70
0
  40
0.003
  41
0.003
  0
VERTEX
  8
Top_Assy
  10
0.3125
  20
0.3463
  42
1
  0
VERTEX
  8
Top_Assy
  10
0.3155
  20
0.3463
  42
1
  0
VERTEX
  8
Top_Assy
  10
0.3125
  20
0.3463
  42
1
  0
SEQEND
  0
POLYLINE
  8
Top_Assy
  6
CONTINUOUS
  66
1
  70
0
  40
0.0013
  41
0.0013
  0
VERTEX
  8
Top_Assy
  10
0.0
  20
0.6693
  42
0
  0
VERTEX
  8
Top_Assy
  10
0.7087
  20
0.6693
  42
0
  0
VERTEX
  8
Top_Assy
  10
0.7087
  20
0.0
  42
0
  0
VERTEX
  8
Top_Assy
  10
0.0
  20
0.0
  42
0
  0
VERTEX
  8
Top_Assy
  10
0.0
  20
0.6693
  42
0
  0
SEQEND
  0
POLYLINE
  8
Top_Silk
  6
CONTINUOUS
  66
1
  70
0
  40
0.008
  41
0.008
  0
VERTEX
  8
Top_Silk
  10
0.0801
  20
0.2831
  42
0
  0
VERTEX
  8
Top_Silk
  10
0.1051
  20
0.2581
  42
0
  0
SEQEND
  0
POLYLINE
  8
Top_Silk
  6
CONTINUOUS
  66
1
  70
0
  40
0.004
  41
0.004
  0
VERTEX
  8
Top_Silk
  10
0.0781
  20
0.2831
  42
1
  0
VERTEX
  8
Top_Silk
  10
0.0821
  20
0.2831
  42
1
  0
VERTEX
  8
Top_Silk
  10
0.0781
  20
0.2831
  42
1
  0
SEQEND
  0
POLYLINE
  8
Top_Silk
  6
CONTINUOUS
  66
1
  70
0
  40
0.004
  41
0.004
  0
VERTEX
  8
Top_Silk
  10
0.1031
  20
0.2581
  42
1
  0
VERTEX
  8
Top_Silk
  10
0.1071
  20
0.2581
  42
1
  0
VERTEX
  8
Top_Silk
  10
0.1031
  20
0.2581
  42
1
  0
SEQEND
  0
POLYLINE
  8
Top_Silk
  6
CONTINUOUS
  66
1
  70
0
  40
0.008
  41
0.008
  0
VERTEX
  8
Top_Silk
  10
0.1051
  20
0.2581
  42
0
  0
VERTEX
  8
Top_Silk
  10
0.1051
  20
0.2081
  42
0
  0
SEQEND
  0
POLYLINE
  8
Top_Silk
  6
CONTINUOUS
  66
1
  70
0
  40
0.004
  41
0.004
  0
VERTEX
  8
Top_Silk
  10
0.1031
  20
0.2581
  42
1
  0
VERTEX
  8
Top_Silk
  10
0.1071
  20
0.2581
  42
1
  0
VERTEX
  8
Top_Silk
  10
0.1031
  20
0.2581
  42
1
  0
SEQEND
  0
POLYLINE
  8
Top_Silk
  6
CONTINUOUS
  66
1
  70
0
  40
0.004
  41
0.004
  0
VERTEX
  8
Top_Silk
  10
0.1031
  20
0.2081
  42
1
  0
VERTEX
  8
Top_Silk
  10
0.1071
  20
0.2081
  42
1
  0
VERTEX
  8
Top_Silk
  10
0.1031
  20
0.2081
  42
1
  0
SEQEND
  0
POLYLINE
  8
Top_Silk
  6
CONTINUOUS
  66
1
  70
0
  40
0.008
  41
0.008
  0
VERTEX
  8
Top_Silk
  10
0.1051
  20
0.2081
  42
0
  0
VERTEX
  8
Top_Silk
  10
0.0801
  20
0.1831
  42
0
  0
SEQEND
  0
POLYLINE
  8
Top_Silk
  6
CONTINUOUS
  66
1
  70
0
  40
0.004
  41
0.004
  0
VERTEX
  8
Top_Silk
  10
0.1031
  20
0.2081
  42
1
  0
VERTEX
  8
Top_Silk
  10
0.1071
  20
0.2081
  42
1
  0
VERTEX
  8
Top_Silk
  10
0.1031
  20
0.2081
  42
1
  0
SEQEND
  0
POLYLINE
  8
Top_Silk
  6
CONTINUOUS
  66
1
  70
0
  40
0.004
  41
0.004
  0
VERTEX
  8
Top_Silk
  10
0.0781
  20
0.1831
  42
1
  0
VERTEX
  8
Top_Silk
  10
0.0821
  20
0.1831
  42
1
  0
VERTEX
  8
Top_Silk
  10
0.0781
  20
0.1831
  42
1
  0
SEQEND
  0
POLYLINE
  8
Top_Silk
  6
CONTINUOUS
  66
1
  70
0
  40
0.008
  41
0.008
  0
VERTEX
  8
Top_Silk
  10
0.0301
  20
0.1831
  42
0
  0
VERTEX
  8
Top_Silk
  10
0.0051
  20
0.2081
  42
0
  0
SEQEND
  0
POLYLINE
  8
Top_Silk
  6
CONTINUOUS
  66
1
  70
0
  40
0.004
  41
0.004
  0
VERTEX
  8
Top_Silk
  10
0.0281
  20
0.1831
  42
1
  0
VERTEX
  8
Top_Silk
  10
0.0321
  20
0.1831
  42
1
  0
VERTEX
  8
Top_Silk
  10
0.0281
  20
0.1831
  42
1
  0
SEQEND
  0
POLYLINE
  8
Top_Silk
  6
CONTINUOUS
  66
1
  70
0
  40
0.004
  41
0.004
  0
VERTEX
  8
Top_Silk
  10
0.0031
  20
0.2081
  42
1
  0
VERTEX
  8
Top_Silk
  10
0.0071
  20
0.2081
  42
1
  0
VERTEX
  8
Top_Silk
  10
0.0031
  20
0.2081
  42
1
  0
SEQEND
  0
POLYLINE
  8
Top_Silk
  6
CONTINUOUS
  66
1
  70
0
  40
0.008
  41
0.008
  0
VERTEX
  8
Top_Silk
  10
0.0051
  20
0.2081
  42
0
  0
VERTEX
  8
Top_Silk
  10
0.0051
  20
0.2581
  42
0
  0
SEQEND
  0
POLYLINE
  8
Top_Silk
  6
CONTINUOUS
  66
1
  70
0
  40
0.004
  41
0.004
  0
VERTEX
  8
Top_Silk
  10
0.0031
  20
0.2081
  42
1
  0
VERTEX
  8
Top_Silk
  10
0.0071
  20
0.2081
  42
1
  0
VERTEX
  8
Top_Silk
  10
0.0031
  20
0.2081
  42
1
  0
SEQEND
  0
POLYLINE
  8
Top_Silk
  6
CONTINUOUS
  66
1
  70
0
  40
0.004
  41
0.004
  0
VERTEX
  8
Top_Silk
  10
0.0031
  20
0.2581
  42
1
  0
VERTEX
  8
Top_Silk
  10
0.0071
  20
0.2581
  42
1
  0
VERTEX
  8
Top_Silk
  10
0.0031
  20
0.2581
  42
1
  0
SEQEND
  0
POLYLINE
  8
Top_Silk
  6
CONTINUOUS
  66
1
  70
0
  40
0.008
  41
0.008
  0
VERTEX
  8
Top_Silk
  10
0.0051
  20
0.2581
  42
0
  0
VERTEX
  8
Top_Silk
  10
0.0301
  20
0.2831
  42
0
  0
SEQEND
  0
POLYLINE
  8
Top_Silk
  6
CONTINUOUS
  66
1
  70
0
  40
0.004
  41
0.004
  0
VERTEX
  8
Top_Silk
  10
0.0031
  20
0.2581
  42
1
  0
VERTEX
  8
Top_Silk
  10
0.0071
  20
0.2581
  42
1
  0
VERTEX
  8
Top_Silk
  10
0.0031
  20
0.2581
  42
1
  0
SEQEND
  0
POLYLINE
  8
Top_Silk
  6
CONTINUOUS
  66
1
  70
0
  40
0.004
  41
0.004
  0
VERTEX
  8
Top_Silk
  10
0.0281
  20
0.2831
  42
1
  0
VERTEX
  8
Top_Silk
  10
0.0321
  20
0.2831
  42
1
  0
VERTEX
  8
Top_Silk
  10
0.0281
  20
0.2831
  42
1
  0
SEQEND
  0
POLYLINE
  8
Top_Silk
  6
CONTINUOUS
  66
1
  70
0
  40
0.008
  41
0.008
  0
VERTEX
  8
Top_Silk
  10
0.1051
  20
0.4581
  42
0
  0
VERTEX
  8
Top_Silk
  10
0.1051
  20
0.4081
  42
0
  0
SEQEND
  0
POLYLINE
  8
Top_Silk
  6
CONTINUOUS
  66
1
  70
0
  40
0.004
  41
0.004
  0
VERTEX
  8
Top_Silk
  10
0.1031
  20
0.4581
  42
1
  0
VERTEX
  8
Top_Silk
  10
0.1071
  20
0.4581
  42
1
  0
VERTEX
  8
Top_Silk
  10
0.1031
  20
0.4581
  42
1
  0
SEQEND
  0
POLYLINE
  8
Top_Silk
  6
CONTINUOUS
  66
1
  70
0
  40
0.004
  41
0.004
  0
VERTEX
  8
Top_Silk
  10
0.1031
  20
0.4081
  42
1
  0
VERTEX
  8
Top_Silk
  10
0.1071
  20
0.4081
  42
1
  0
VERTEX
  8
Top_Silk
  10
0.1031
  20
0.4081
  42
1
  0
SEQEND
  0
POLYLINE
  8
Top_Silk
  6
CONTINUOUS
  66
1
  70
0
  40
0.008
  41
0.008
  0
VERTEX
  8
Top_Silk
  10
0.1051
  20
0.4081
  42
0
  0
VERTEX
  8
Top_Silk
  10
0.0801
  20
0.3831
  42
0
  0
SEQEND
  0
POLYLINE
  8
Top_Silk
  6
CONTINUOUS
  66
1
  70
0
  40
0.004
  41
0.004
  0
VERTEX
  8
Top_Silk
  10
0.1031
  20
0.4081
  42
1
  0
VERTEX
  8
Top_Silk
  10
0.1071
  20
0.4081
  42
1
  0
VERTEX
  8
Top_Silk
  10
0.1031
  20
0.4081
  42
1
  0
SEQEND
  0
POLYLINE
  8
Top_Silk
  6
CONTINUOUS
  66
1
  70
0
  40
0.004
  41
0.004
  0
VERTEX
  8
Top_Silk
  10
0.0781
  20
0.3831
  42
1
  0
VERTEX
  8
Top_Silk
  10
0.0821
  20
0.3831
  42
1
  0
VERTEX
  8
Top_Silk
  10
0.0781
  20
0.3831
  42
1
  0
SEQEND
  0
POLYLINE
  8
Top_Silk
  6
CONTINUOUS
  66
1
  70
0
  40
0.008
  41
0.008
  0
VERTEX
  8
Top_Silk
  10
0.0301
  20
0.3831
  42
0
  0
VERTEX
  8
Top_Silk
  10
0.0051
  20
0.4081
  42
0
  0
SEQEND
  0
POLYLINE
  8
Top_Silk
  6
CONTINUOUS
  66
1
  70
0
  40
0.004
  41
0.004
  0
VERTEX
  8
Top_Silk
  10
0.0281
  20
0.3831
  42
1
  0
VERTEX
  8
Top_Silk
  10
0.0321
  20
0.3831
  42
1
  0
VERTEX
  8
Top_Silk
  10
0.0281
  20
0.3831
  42
1
  0
SEQEND
  0
POLYLINE
  8
Top_Silk
  6
CONTINUOUS
  66
1
  70
0
  40
0.004
  41
0.004
  0
VERTEX
  8
Top_Silk
  10
0.0031
  20
0.4081
  42
1
  0
VERTEX
  8
Top_Silk
  10
0.0071
  20
0.4081
  42
1
  0
VERTEX
  8
Top_Silk
  10
0.0031
  20
0.4081
  42
1
  0
SEQEND
  0
POLYLINE
  8
Top_Silk
  6
CONTINUOUS
  66
1
  70
0
  40
0.008
  41
0.008
  0
VERTEX
  8
Top_Silk
  10
0.0801
  20
0.3831
  42
0
  0
VERTEX
  8
Top_Silk
  10
0.1051
  20
0.3581
  42
0
  0
SEQEND
  0
POLYLINE
  8
Top_Silk
  6
CONTINUOUS
  66
1
  70
0
  40
0.004
  41
0.004
  0
VERTEX
  8
Top_Silk
  10
0.0781
  20
0.3831
  42
1
  0
VERTEX
  8
Top_Silk
  10
0.0821
  20
0.3831
  42
1
  0
VERTEX
  8
Top_Silk
  10
0.0781
  20
0.3831
  42
1
  0
SEQEND
  0
POLYLINE
  8
Top_Silk
  6
CONTINUOUS
  66
1
  70
0
  40
0.004
  41
0.004
  0
VERTEX
  8
Top_Silk
  10
0.1031
  20
0.3581
  42
1
  0
VERTEX
  8
Top_Silk
  10
0.1071
  20
0.3581
  42
1
  0
VERTEX
  8
Top_Silk
  10
0.1031
  20
0.3581
  42
1
  0
SEQEND
  0
POLYLINE
  8
Top_Silk
  6
CONTINUOUS
  66
1
  70
0
  40
0.008
  41
0.008
  0
VERTEX
  8
Top_Silk
  10
0.1051
  20
0.3581
  42
0
  0
VERTEX
  8
Top_Silk
  10
0.1051
  20
0.3081
  42
0
  0
SEQEND
  0
POLYLINE
  8
Top_Silk
  6
CONTINUOUS
  66
1
  70
0
  40
0.004
  41
0.004
  0
VERTEX
  8
Top_Silk
  10
0.1031
  20
0.3581
  42
1
  0
VERTEX
  8
Top_Silk
  10
0.1071
  20
0.3581
  42
1
  0
VERTEX
  8
Top_Silk
  10
0.1031
  20
0.3581
  42
1
  0
SEQEND
  0
POLYLINE
  8
Top_Silk
  6
CONTINUOUS
  66
1
  70
0
  40
0.004
  41
0.004
  0
VERTEX
  8
Top_Silk
  10
0.1031
  20
0.3081
  42
1
  0
VERTEX
  8
Top_Silk
  10
0.1071
  20
0.3081
  42
1
  0
VERTEX
  8
Top_Silk
  10
0.1031
  20
0.3081
  42
1
  0
SEQEND
  0
POLYLINE
  8
Top_Silk
  6
CONTINUOUS
  66
1
  70
0
  40
0.008
  41
0.008
  0
VERTEX
  8
Top_Silk
  10
0.1051
  20
0.3081
  42
0
  0
VERTEX
  8
Top_Silk
  10
0.0801
  20
0.2831
  42
0
  0
SEQEND
  0
POLYLINE
  8
Top_Silk
  6
CONTINUOUS
  66
1
  70
0
  40
0.004
  41
0.004
  0
VERTEX
  8
Top_Silk
  10
0.1031
  20
0.3081
  42
1
  0
VERTEX
  8
Top_Silk
  10
0.1071
  20
0.3081
  42
1
  0
VERTEX
  8
Top_Silk
  10
0.1031
  20
0.3081
  42
1
  0
SEQEND
  0
POLYLINE
  8
Top_Silk
  6
CONTINUOUS
  66
1
  70
0
  40
0.004
  41
0.004
  0
VERTEX
  8
Top_Silk
  10
0.0781
  20
0.2831
  42
1
  0
VERTEX
  8
Top_Silk
  10
0.0821
  20
0.2831
  42
1
  0
VERTEX
  8
Top_Silk
  10
0.0781
  20
0.2831
  42
1
  0
SEQEND
  0
POLYLINE
  8
Top_Silk
  6
CONTINUOUS
  66
1
  70
0
  40
0.008
  41
0.008
  0
VERTEX
  8
Top_Silk
  10
0.0301
  20
0.2831
  42
0
  0
VERTEX
  8
Top_Silk
  10
0.0051
  20
0.3081
  42
0
  0
SEQEND
  0
POLYLINE
  8
Top_Silk
  6
CONTINUOUS
  66
1
  70
0
  40
0.004
  41
0.004
  0
VERTEX
  8
Top_Silk
  10
0.0281
  20
0.2831
  42
1
  0
VERTEX
  8
Top_Silk
  10
0.0321
  20
0.2831
  42
1
  0
VERTEX
  8
Top_Silk
  10
0.0281
  20
0.2831
  42
1
  0
SEQEND
  0
POLYLINE
  8
Top_Silk
  6
CONTINUOUS
  66
1
  70
0
  40
0.004
  41
0.004
  0
VERTEX
  8
Top_Silk
  10
0.0031
  20
0.3081
  42
1
  0
VERTEX
  8
Top_Silk
  10
0.0071
  20
0.3081
  42
1
  0
VERTEX
  8
Top_Silk
  10
0.0031
  20
0.3081
  42
1
  0
SEQEND
  0
POLYLINE
  8
Top_Silk
  6
CONTINUOUS
  66
1
  70
0
  40
0.008
  41
0.008
  0
VERTEX
  8
Top_Silk
  10
0.0051
  20
0.3081
  42
0
  0
VERTEX
  8
Top_Silk
  10
0.0051
  20
0.3581
  42
0
  0
SEQEND
  0
POLYLINE
  8
Top_Silk
  6
CONTINUOUS
  66
1
  70
0
  40
0.004
  41
0.004
  0
VERTEX
  8
Top_Silk
  10
0.0031
  20
0.3081
  42
1
  0
VERTEX
  8
Top_Silk
  10
0.0071
  20
0.3081
  42
1
  0
VERTEX
  8
Top_Silk
  10
0.0031
  20
0.3081
  42
1
  0
SEQEND
  0
POLYLINE
  8
Top_Silk
  6
CONTINUOUS
  66
1
  70
0
  40
0.004
  41
0.004
  0
VERTEX
  8
Top_Silk
  10
0.0031
  20
0.3581
  42
1
  0
VERTEX
  8
Top_Silk
  10
0.0071
  20
0.3581
  42
1
  0
VERTEX
  8
Top_Silk
  10
0.0031
  20
0.3581
  42
1
  0
SEQEND
  0
POLYLINE
  8
Top_Silk
  6
CONTINUOUS
  66
1
  70
0
  40
0.008
  41
0.008
  0
VERTEX
  8
Top_Silk
  10
0.0051
  20
0.3581
  42
0
  0
VERTEX
  8
Top_Silk
  10
0.0301
  20
0.3831
  42
0
  0
SEQEND
  0
POLYLINE
  8
Top_Silk
  6
CONTINUOUS
  66
1
  70
0
  40
0.004
  41
0.004
  0
VERTEX
  8
Top_Silk
  10
0.0031
  20
0.3581
  42
1
  0
VERTEX
  8
Top_Silk
  10
0.0071
  20
0.3581
  42
1
  0
VERTEX
  8
Top_Silk
  10
0.0031
  20
0.3581
  42
1
  0
SEQEND
  0
POLYLINE
  8
Top_Silk
  6
CONTINUOUS
  66
1
  70
0
  40
0.004
  41
0.004
  0
VERTEX
  8
Top_Silk
  10
0.0281
  20
0.3831
  42
1
  0
VERTEX
  8
Top_Silk
  10
0.0321
  20
0.3831
  42
1
  0
VERTEX
  8
Top_Silk
  10
0.0281
  20
0.3831
  42
1
  0
SEQEND
  0
POLYLINE
  8
Top_Silk
  6
CONTINUOUS
  66
1
  70
0
  40
0.008
  41
0.008
  0
VERTEX
  8
Top_Silk
  10
0.0801
  20
0.4831
  42
0
  0
VERTEX
  8
Top_Silk
  10
0.0301
  20
0.4831
  42
0
  0
SEQEND
  0
POLYLINE
  8
Top_Silk
  6
CONTINUOUS
  66
1
  70
0
  40
0.004
  41
0.004
  0
VERTEX
  8
Top_Silk
  10
0.0781
  20
0.4831
  42
1
  0
VERTEX
  8
Top_Silk
  10
0.0821
  20
0.4831
  42
1
  0
VERTEX
  8
Top_Silk
  10
0.0781
  20
0.4831
  42
1
  0
SEQEND
  0
POLYLINE
  8
Top_Silk
  6
CONTINUOUS
  66
1
  70
0
  40
0.004
  41
0.004
  0
VERTEX
  8
Top_Silk
  10
0.0281
  20
0.4831
  42
1
  0
VERTEX
  8
Top_Silk
  10
0.0321
  20
0.4831
  42
1
  0
VERTEX
  8
Top_Silk
  10
0.0281
  20
0.4831
  42
1
  0
SEQEND
  0
POLYLINE
  8
Top_Silk
  6
CONTINUOUS
  66
1
  70
0
  40
0.008
  41
0.008
  0
VERTEX
  8
Top_Silk
  10
0.1051
  20
0.4581
  42
0
  0
VERTEX
  8
Top_Silk
  10
0.0801
  20
0.4831
  42
0
  0
SEQEND
  0
POLYLINE
  8
Top_Silk
  6
CONTINUOUS
  66
1
  70
0
  40
0.004
  41
0.004
  0
VERTEX
  8
Top_Silk
  10
0.1031
  20
0.4581
  42
1
  0
VERTEX
  8
Top_Silk
  10
0.1071
  20
0.4581
  42
1
  0
VERTEX
  8
Top_Silk
  10
0.1031
  20
0.4581
  42
1
  0
SEQEND
  0
POLYLINE
  8
Top_Silk
  6
CONTINUOUS
  66
1
  70
0
  40
0.004
  41
0.004
  0
VERTEX
  8
Top_Silk
  10
0.0781
  20
0.4831
  42
1
  0
VERTEX
  8
Top_Silk
  10
0.0821
  20
0.4831
  42
1
  0
VERTEX
  8
Top_Silk
  10
0.0781
  20
0.4831
  42
1
  0
SEQEND
  0
POLYLINE
  8
Top_Silk
  6
CONTINUOUS
  66
1
  70
0
  40
0.008
  41
0.008
  0
VERTEX
  8
Top_Silk
  10
0.0301
  20
0.4831
  42
0
  0
VERTEX
  8
Top_Silk
  10
0.0051
  20
0.4581
  42
0
  0
SEQEND
  0
POLYLINE
  8
Top_Silk
  6
CONTINUOUS
  66
1
  70
0
  40
0.004
  41
0.004
  0
VERTEX
  8
Top_Silk
  10
0.0281
  20
0.4831
  42
1
  0
VERTEX
  8
Top_Silk
  10
0.0321
  20
0.4831
  42
1
  0
VERTEX
  8
Top_Silk
  10
0.0281
  20
0.4831
  42
1
  0
SEQEND
  0
POLYLINE
  8
Top_Silk
  6
CONTINUOUS
  66
1
  70
0
  40
0.004
  41
0.004
  0
VERTEX
  8
Top_Silk
  10
0.0031
  20
0.4581
  42
1
  0
VERTEX
  8
Top_Silk
  10
0.0071
  20
0.4581
  42
1
  0
VERTEX
  8
Top_Silk
  10
0.0031
  20
0.4581
  42
1
  0
SEQEND
  0
POLYLINE
  8
Top_Silk
  6
CONTINUOUS
  66
1
  70
0
  40
0.008
  41
0.008
  0
VERTEX
  8
Top_Silk
  10
0.0051
  20
0.4081
  42
0
  0
VERTEX
  8
Top_Silk
  10
0.0051
  20
0.4581
  42
0
  0
SEQEND
  0
POLYLINE
  8
Top_Silk
  6
CONTINUOUS
  66
1
  70
0
  40
0.004
  41
0.004
  0
VERTEX
  8
Top_Silk
  10
0.0031
  20
0.4081
  42
1
  0
VERTEX
  8
Top_Silk
  10
0.0071
  20
0.4081
  42
1
  0
VERTEX
  8
Top_Silk
  10
0.0031
  20
0.4081
  42
1
  0
SEQEND
  0
POLYLINE
  8
Top_Silk
  6
CONTINUOUS
  66
1
  70
0
  40
0.004
  41
0.004
  0
VERTEX
  8
Top_Silk
  10
0.0031
  20
0.4581
  42
1
  0
VERTEX
  8
Top_Silk
  10
0.0071
  20
0.4581
  42
1
  0
VERTEX
  8
Top_Silk
  10
0.0031
  20
0.4581
  42
1
  0
SEQEND
  0
POLYLINE
  8
Top_Silk
  6
CONTINUOUS
  66
1
  70
0
  40
0.008
  41
0.008
  0
VERTEX
  8
Top_Silk
  10
0.0801
  20
0.1831
  42
0
  0
VERTEX
  8
Top_Silk
  10
0.0301
  20
0.1831
  42
0
  0
SEQEND
  0
POLYLINE
  8
Top_Silk
  6
CONTINUOUS
  66
1
  70
0
  40
0.004
  41
0.004
  0
VERTEX
  8
Top_Silk
  10
0.0781
  20
0.1831
  42
1
  0
VERTEX
  8
Top_Silk
  10
0.0821
  20
0.1831
  42
1
  0
VERTEX
  8
Top_Silk
  10
0.0781
  20
0.1831
  42
1
  0
SEQEND
  0
POLYLINE
  8
Top_Silk
  6
CONTINUOUS
  66
1
  70
0
  40
0.004
  41
0.004
  0
VERTEX
  8
Top_Silk
  10
0.0281
  20
0.1831
  42
1
  0
VERTEX
  8
Top_Silk
  10
0.0321
  20
0.1831
  42
1
  0
VERTEX
  8
Top_Silk
  10
0.0281
  20
0.1831
  42
1
  0
SEQEND
  0
SOLID
  8
Top_Silk
  10
0.3368
  20
0.3286
  11
0.3088
  21
0.3286
  12
0.3368
  22
0.3446
  13
0.3088
  23
0.3446
  0
POLYLINE
  8
Top_Silk
  6
CONTINUOUS
  66
1
  70
0
  40
0.005
  41
0.005
  0
VERTEX
  8
Top_Silk
  10
0.4366
  20
0.3925
  42
0
  0
VERTEX
  8
Top_Silk
  10
0.4283
  20
0.3925
  42
0
  0
SEQEND
  0
POLYLINE
  8
Top_Silk
  6
CONTINUOUS
  66
1
  70
0
  40
0.0025
  41
0.0025
  0
VERTEX
  8
Top_Silk
  10
0.4354
  20
0.3925
  42
1
  0
VERTEX
  8
Top_Silk
  10
0.4379
  20
0.3925
  42
1
  0
VERTEX
  8
Top_Silk
  10
0.4354
  20
0.3925
  42
1
  0
SEQEND
  0
POLYLINE
  8
Top_Silk
  6
CONTINUOUS
  66
1
  70
0
  40
0.0025
  41
0.0025
  0
VERTEX
  8
Top_Silk
  10
0.4271
  20
0.3925
  42
1
  0
VERTEX
  8
Top_Silk
  10
0.4296
  20
0.3925
  42
1
  0
VERTEX
  8
Top_Silk
  10
0.4271
  20
0.3925
  42
1
  0
SEQEND
  0
POLYLINE
  8
Top_Silk
  6
CONTINUOUS
  66
1
  70
0
  40
0.005
  41
0.005
  0
VERTEX
  8
Top_Silk
  10
0.4283
  20
0.3925
  42
0
  0
VERTEX
  8
Top_Silk
  10
0.4283
  20
0.276
  42
0
  0
SEQEND
  0
POLYLINE
  8
Top_Silk
  6
CONTINUOUS
  66
1
  70
0
  40
0.0025
  41
0.0025
  0
VERTEX
  8
Top_Silk
  10
0.4271
  20
0.3925
  42
1
  0
VERTEX
  8
Top_Silk
  10
0.4296
  20
0.3925
  42
1
  0
VERTEX
  8
Top_Silk
  10
0.4271
  20
0.3925
  42
1
  0
SEQEND
  0
POLYLINE
  8
Top_Silk
  6
CONTINUOUS
  66
1
  70
0
  40
0.0025
  41
0.0025
  0
VERTEX
  8
Top_Silk
  10
0.4271
  20
0.276
  42
1
  0
VERTEX
  8
Top_Silk
  10
0.4296
  20
0.276
  42
1
  0
VERTEX
  8
Top_Silk
  10
0.4271
  20
0.276
  42
1
  0
SEQEND
  0
POLYLINE
  8
Top_Silk
  6
CONTINUOUS
  66
1
  70
0
  40
0.005
  41
0.005
  0
VERTEX
  8
Top_Silk
  10
0.4965
  20
0.3925
  42
0
  0
VERTEX
  8
Top_Silk
  10
0.5055
  20
0.3925
  42
0
  0
SEQEND
  0
POLYLINE
  8
Top_Silk
  6
CONTINUOUS
  66
1
  70
0
  40
0.0025
  41
0.0025
  0
VERTEX
  8
Top_Silk
  10
0.4952
  20
0.3925
  42
1
  0
VERTEX
  8
Top_Silk
  10
0.4977
  20
0.3925
  42
1
  0
VERTEX
  8
Top_Silk
  10
0.4952
  20
0.3925
  42
1
  0
SEQEND
  0
POLYLINE
  8
Top_Silk
  6
CONTINUOUS
  66
1
  70
0
  40
0.0025
  41
0.0025
  0
VERTEX
  8
Top_Silk
  10
0.5043
  20
0.3925
  42
1
  0
VERTEX
  8
Top_Silk
  10
0.5068
  20
0.3925
  42
1
  0
VERTEX
  8
Top_Silk
  10
0.5043
  20
0.3925
  42
1
  0
SEQEND
  0
POLYLINE
  8
Top_Silk
  6
CONTINUOUS
  66
1
  70
0
  40
0.005
  41
0.005
  0
VERTEX
  8
Top_Silk
  10
0.5055
  20
0.3925
  42
0
  0
VERTEX
  8
Top_Silk
  10
0.5055
  20
0.2748
  42
0
  0
SEQEND
  0
POLYLINE
  8
Top_Silk
  6
CONTINUOUS
  66
1
  70
0
  40
0.0025
  41
0.0025
  0
VERTEX
  8
Top_Silk
  10
0.5043
  20
0.3925
  42
1
  0
VERTEX
  8
Top_Silk
  10
0.5068
  20
0.3925
  42
1
  0
VERTEX
  8
Top_Silk
  10
0.5043
  20
0.3925
  42
1
  0
SEQEND
  0
POLYLINE
  8
Top_Silk
  6
CONTINUOUS
  66
1
  70
0
  40
0.0025
  41
0.0025
  0
VERTEX
  8
Top_Silk
  10
0.5043
  20
0.2748
  42
1
  0
VERTEX
  8
Top_Silk
  10
0.5068
  20
0.2748
  42
1
  0
VERTEX
  8
Top_Silk
  10
0.5043
  20
0.2748
  42
1
  0
SEQEND
  0
POLYLINE
  8
Top_Silk
  6
CONTINUOUS
  66
1
  70
0
  40
0.005
  41
0.005
  0
VERTEX
  8
Top_Silk
  10
0.4693
  20
0.2354
  42
0
  0
VERTEX
  8
Top_Silk
  10
0.4634
  20
0.2354
  42
0
  0
SEQEND
  0
POLYLINE
  8
Top_Silk
  6
CONTINUOUS
  66
1
  70
0
  40
0.0025
  41
0.0025
  0
VERTEX
  8
Top_Silk
  10
0.468
  20
0.2354
  42
1
  0
VERTEX
  8
Top_Silk
  10
0.4705
  20
0.2354
  42
1
  0
VERTEX
  8
Top_Silk
  10
0.468
  20
0.2354
  42
1
  0
SEQEND
  0
POLYLINE
  8
Top_Silk
  6
CONTINUOUS
  66
1
  70
0
  40
0.0025
  41
0.0025
  0
VERTEX
  8
Top_Silk
  10
0.4621
  20
0.2354
  42
1
  0
VERTEX
  8
Top_Silk
  10
0.4646
  20
0.2354
  42
1
  0
VERTEX
  8
Top_Silk
  10
0.4621
  20
0.2354
  42
1
  0
SEQEND
  0
POLYLINE
  8
Top_Silk
  6
CONTINUOUS
  66
1
  70
0
  40
0.0062
  41
0.0062
  0
VERTEX
  8
Top_Silk
  10
0.1197
  20
0.4568
  42
0
  0
VERTEX
  8
Top_Silk
  10
0.135
  20
0.4166
  42
0
  0
VERTEX
  8
Top_Silk
  10
0.1503
  20
0.4568
  42
0
  0
SEQEND
  0
POLYLINE
  8
Top_Silk
  6
CONTINUOUS
  66
1
  70
0
  40
0.0031
  41
0.0031
  0
VERTEX
  8
Top_Silk
  10
0.1181
  20
0.4568
  42
1
  0
VERTEX
  8
Top_Silk
  10
0.1212
  20
0.4568
  42
1
  0
VERTEX
  8
Top_Silk
  10
0.1181
  20
0.4568
  42
1
  0
SEQEND
  0
POLYLINE
  8
Top_Silk
  6
CONTINUOUS
  66
1
  70
0
  40
0.0031
  41
0.0031
  0
VERTEX
  8
Top_Silk
  10
0.1487
  20
0.4568
  42
1
  0
VERTEX
  8
Top_Silk
  10
0.1518
  20
0.4568
  42
1
  0
VERTEX
  8
Top_Silk
  10
0.1487
  20
0.4568
  42
1
  0
SEQEND
  0
POLYLINE
  8
Top_Silk
  6
CONTINUOUS
  66
1
  70
0
  40
0.0062
  41
0.0062
  0
VERTEX
  8
Top_Silk
  10
0.1913
  20
0.4473
  42
0
  0
VERTEX
  8
Top_Silk
  10
0.1894
  20
0.4511
  42
0
  0
VERTEX
  8
Top_Silk
  10
0.1856
  20
0.4549
  42
0
  0
VERTEX
  8
Top_Silk
  10
0.1818
  20
0.4568
  42
0
  0
VERTEX
  8
Top_Silk
  10
0.1741
  20
0.4568
  42
0
  0
VERTEX
  8
Top_Silk
  10
0.1703
  20
0.4549
  42
0
  0
VERTEX
  8
Top_Silk
  10
0.1665
  20
0.4511
  42
0
  0
VERTEX
  8
Top_Silk
  10
0.1645
  20
0.4473
  42
0
  0
VERTEX
  8
Top_Silk
  10
0.1626
  20
0.4415
  42
0
  0
VERTEX
  8
Top_Silk
  10
0.1626
  20
0.4319
  42
0
  0
VERTEX
  8
Top_Silk
  10
0.1645
  20
0.4262
  42
0
  0
VERTEX
  8
Top_Silk
  10
0.1665
  20
0.4224
  42
0
  0
VERTEX
  8
Top_Silk
  10
0.1703
  20
0.4186
  42
0
  0
VERTEX
  8
Top_Silk
  10
0.1741
  20
0.4166
  42
0
  0
VERTEX
  8
Top_Silk
  10
0.1818
  20
0.4166
  42
0
  0
VERTEX
  8
Top_Silk
  10
0.1856
  20
0.4186
  42
0
  0
VERTEX
  8
Top_Silk
  10
0.1894
  20
0.4224
  42
0
  0
VERTEX
  8
Top_Silk
  10
0.1913
  20
0.4262
  42
0
  0
SEQEND
  0
POLYLINE
  8
Top_Silk
  6
CONTINUOUS
  66
1
  70
0
  40
0.0031
  41
0.0031
  0
VERTEX
  8
Top_Silk
  10
0.1898
  20
0.4473
  42
1
  0
VERTEX
  8
Top_Silk
  10
0.1929
  20
0.4473
  42
1
  0
VERTEX
  8
Top_Silk
  10
0.1898
  20
0.4473
  42
1
  0
SEQEND
  0
POLYLINE
  8
Top_Silk
  6
CONTINUOUS
  66
1
  70
0
  40
0.0031
  41
0.0031
  0
VERTEX
  8
Top_Silk
  10
0.1898
  20
0.4262
  42
1
  0
VERTEX
  8
Top_Silk
  10
0.1929
  20
0.4262
  42
1
  0
VERTEX
  8
Top_Silk
  10
0.1898
  20
0.4262
  42
1
  0
SEQEND
  0
POLYLINE
  8
Top_Silk
  6
CONTINUOUS
  66
1
  70
0
  40
0.0062
  41
0.0062
  0
VERTEX
  8
Top_Silk
  10
0.2324
  20
0.4473
  42
0
  0
VERTEX
  8
Top_Silk
  10
0.2305
  20
0.4511
  42
0
  0
VERTEX
  8
Top_Silk
  10
0.2266
  20
0.4549
  42
0
  0
VERTEX
  8
Top_Silk
  10
0.2228
  20
0.4568
  42
0
  0
VERTEX
  8
Top_Silk
  10
0.2152
  20
0.4568
  42
0
  0
VERTEX
  8
Top_Silk
  10
0.2113
  20
0.4549
  42
0
  0
VERTEX
  8
Top_Silk
  10
0.2075
  20
0.4511
  42
0
  0
VERTEX
  8
Top_Silk
  10
0.2056
  20
0.4473
  42
0
  0
VERTEX
  8
Top_Silk
  10
0.2037
  20
0.4415
  42
0
  0
VERTEX
  8
Top_Silk
  10
0.2037
  20
0.4319
  42
0
  0
VERTEX
  8
Top_Silk
  10
0.2056
  20
0.4262
  42
0
  0
VERTEX
  8
Top_Silk
  10
0.2075
  20
0.4224
  42
0
  0
VERTEX
  8
Top_Silk
  10
0.2113
  20
0.4186
  42
0
  0
VERTEX
  8
Top_Silk
  10
0.2152
  20
0.4166
  42
0
  0
VERTEX
  8
Top_Silk
  10
0.2228
  20
0.4166
  42
0
  0
VERTEX
  8
Top_Silk
  10
0.2266
  20
0.4186
  42
0
  0
VERTEX
  8
Top_Silk
  10
0.2305
  20
0.4224
  42
0
  0
VERTEX
  8
Top_Silk
  10
0.2324
  20
0.4262
  42
0
  0
SEQEND
  0
POLYLINE
  8
Top_Silk
  6
CONTINUOUS
  66
1
  70
0
  40
0.0031
  41
0.0031
  0
VERTEX
  8
Top_Silk
  10
0.2308
  20
0.4473
  42
1
  0
VERTEX
  8
Top_Silk
  10
0.2339
  20
0.4473
  42
1
  0
VERTEX
  8
Top_Silk
  10
0.2308
  20
0.4473
  42
1
  0
SEQEND
  0
POLYLINE
  8
Top_Silk
  6
CONTINUOUS
  66
1
  70
0
  40
0.0031
  41
0.0031
  0
VERTEX
  8
Top_Silk
  10
0.2308
  20
0.4262
  42
1
  0
VERTEX
  8
Top_Silk
  10
0.2339
  20
0.4262
  42
1
  0
VERTEX
  8
Top_Silk
  10
0.2308
  20
0.4262
  42
1
  0
SEQEND
  0
POLYLINE
  8
Top_Silk
  6
CONTINUOUS
  66
1
  70
0
  40
0.0062
  41
0.0062
  0
VERTEX
  8
Top_Silk
  10
0.1511
  20
0.3461
  42
0
  0
VERTEX
  8
Top_Silk
  10
0.1492
  20
0.3499
  42
0
  0
VERTEX
  8
Top_Silk
  10
0.1454
  20
0.3538
  42
0
  0
VERTEX
  8
Top_Silk
  10
0.1416
  20
0.3557
  42
0
  0
VERTEX
  8
Top_Silk
  10
0.1339
  20
0.3557
  42
0
  0
VERTEX
  8
Top_Silk
  10
0.1301
  20
0.3538
  42
0
  0
VERTEX
  8
Top_Silk
  10
0.1263
  20
0.3499
  42
0
  0
VERTEX
  8
Top_Silk
  10
0.1243
  20
0.3461
  42
0
  0
VERTEX
  8
Top_Silk
  10
0.1224
  20
0.3404
  42
0
  0
VERTEX
  8
Top_Silk
  10
0.1224
  20
0.3308
  42
0
  0
VERTEX
  8
Top_Silk
  10
0.1243
  20
0.3251
  42
0
  0
VERTEX
  8
Top_Silk
  10
0.1263
  20
0.3212
  42
0
  0
VERTEX
  8
Top_Silk
  10
0.1301
  20
0.3174
  42
0
  0
VERTEX
  8
Top_Silk
  10
0.1339
  20
0.3155
  42
0
  0
VERTEX
  8
Top_Silk
  10
0.1416
  20
0.3155
  42
0
  0
VERTEX
  8
Top_Silk
  10
0.1454
  20
0.3174
  42
0
  0
VERTEX
  8
Top_Silk
  10
0.1492
  20
0.3212
  42
0
  0
VERTEX
  8
Top_Silk
  10
0.1511
  20
0.3251
  42
0
  0
VERTEX
  8
Top_Silk
  10
0.1511
  20
0.3308
  42
0
  0
VERTEX
  8
Top_Silk
  10
0.1416
  20
0.3308
  42
0
  0
SEQEND
  0
POLYLINE
  8
Top_Silk
  6
CONTINUOUS
  66
1
  70
0
  40
0.0031
  41
0.0031
  0
VERTEX
  8
Top_Silk
  10
0.1496
  20
0.3461
  42
1
  0
VERTEX
  8
Top_Silk
  10
0.1527
  20
0.3461
  42
1
  0
VERTEX
  8
Top_Silk
  10
0.1496
  20
0.3461
  42
1
  0
SEQEND
  0
POLYLINE
  8
Top_Silk
  6
CONTINUOUS
  66
1
  70
0
  40
0.0031
  41
0.0031
  0
VERTEX
  8
Top_Silk
  10
0.14
  20
0.3308
  42
1
  0
VERTEX
  8
Top_Silk
  10
0.1431
  20
0.3308
  42
1
  0
VERTEX
  8
Top_Silk
  10
0.14
  20
0.3308
  42
1
  0
SEQEND
  0
POLYLINE
  8
Top_Silk
  6
CONTINUOUS
  66
1
  70
0
  40
0.0062
  41
0.0062
  0
VERTEX
  8
Top_Silk
  10
0.1903
  20
0.3557
  42
0
  0
VERTEX
  8
Top_Silk
  10
0.1903
  20
0.3155
  42
0
  0
VERTEX
  8
Top_Silk
  10
0.1635
  20
0.3557
  42
0
  0
VERTEX
  8
Top_Silk
  10
0.1635
  20
0.3155
  42
0
  0
SEQEND
  0
POLYLINE
  8
Top_Silk
  6
CONTINUOUS
  66
1
  70
0
  40
0.0031
  41
0.0031
  0
VERTEX
  8
Top_Silk
  10
0.1887
  20
0.3557
  42
1
  0
VERTEX
  8
Top_Silk
  10
0.1918
  20
0.3557
  42
1
  0
VERTEX
  8
Top_Silk
  10
0.1887
  20
0.3557
  42
1
  0
SEQEND
  0
POLYLINE
  8
Top_Silk
  6
CONTINUOUS
  66
1
  70
0
  40
0.0031
  41
0.0031
  0
VERTEX
  8
Top_Silk
  10
0.1619
  20
0.3155
  42
1
  0
VERTEX
  8
Top_Silk
  10
0.165
  20
0.3155
  42
1
  0
VERTEX
  8
Top_Silk
  10
0.1619
  20
0.3155
  42
1
  0
SEQEND
  0
POLYLINE
  8
Top_Silk
  6
CONTINUOUS
  66
1
  70
0
  40
0.0062
  41
0.0062
  0
VERTEX
  8
Top_Silk
  10
0.2026
  20
0.3557
  42
0
  0
VERTEX
  8
Top_Silk
  10
0.2026
  20
0.3155
  42
0
  0
VERTEX
  8
Top_Silk
  10
0.216
  20
0.3155
  42
0
  0
VERTEX
  8
Top_Silk
  10
0.2218
  20
0.3174
  42
0
  0
VERTEX
  8
Top_Silk
  10
0.2256
  20
0.3212
  42
0
  0
VERTEX
  8
Top_Silk
  10
0.2275
  20
0.3251
  42
0
  0
VERTEX
  8
Top_Silk
  10
0.2294
  20
0.3308
  42
0
  0
VERTEX
  8
Top_Silk
  10
0.2294
  20
0.3404
  42
0
  0
VERTEX
  8
Top_Silk
  10
0.2275
  20
0.3461
  42
0
  0
VERTEX
  8
Top_Silk
  10
0.2256
  20
0.3499
  42
0
  0
VERTEX
  8
Top_Silk
  10
0.2218
  20
0.3538
  42
0
  0
VERTEX
  8
Top_Silk
  10
0.216
  20
0.3557
  42
0
  0
VERTEX
  8
Top_Silk
  10
0.2026
  20
0.3557
  42
0
  0
SEQEND
  0
POLYLINE
  8
Top_Silk
  6
CONTINUOUS
  66
1
  70
0
  40
0.0031
  41
0.0031
  0
VERTEX
  8
Top_Silk
  10
0.2011
  20
0.3557
  42
1
  0
VERTEX
  8
Top_Silk
  10
0.2042
  20
0.3557
  42
1
  0
VERTEX
  8
Top_Silk
  10
0.2011
  20
0.3557
  42
1
  0
SEQEND
  0
POLYLINE
  8
Top_Silk
  6
CONTINUOUS
  66
1
  70
0
  40
0.0062
  41
0.0062
  0
VERTEX
  8
Top_Silk
  10
0.134
  20
0.2531
  42
0
  0
VERTEX
  8
Top_Silk
  10
0.1302
  20
0.2512
  42
0
  0
VERTEX
  8
Top_Silk
  10
0.1264
  20
0.2473
  42
0
  0
VERTEX
  8
Top_Silk
  10
0.1245
  20
0.2435
  42
0
  0
VERTEX
  8
Top_Silk
  10
0.1225
  20
0.2378
  42
0
  0
VERTEX
  8
Top_Silk
  10
0.1225
  20
0.2282
  42
0
  0
VERTEX
  8
Top_Silk
  10
0.1245
  20
0.2225
  42
0
  0
VERTEX
  8
Top_Silk
  10
0.1264
  20
0.2186
  42
0
  0
VERTEX
  8
Top_Silk
  10
0.1302
  20
0.2148
  42
0
  0
VERTEX
  8
Top_Silk
  10
0.134
  20
0.2129
  42
0
  0
VERTEX
  8
Top_Silk
  10
0.1417
  20
0.2129
  42
0
  0
VERTEX
  8
Top_Silk
  10
0.1455
  20
0.2148
  42
0
  0
VERTEX
  8
Top_Silk
  10
0.1493
  20
0.2186
  42
0
  0
VERTEX
  8
Top_Silk
  10
0.1512
  20
0.2225
  42
0
  0
VERTEX
  8
Top_Silk
  10
0.1531
  20
0.2282
  42
0
  0
VERTEX
  8
Top_Silk
  10
0.1531
  20
0.2378
  42
0
  0
VERTEX
  8
Top_Silk
  10
0.1512
  20
0.2435
  42
0
  0
VERTEX
  8
Top_Silk
  10
0.1493
  20
0.2473
  42
0
  0
VERTEX
  8
Top_Silk
  10
0.1455
  20
0.2512
  42
0
  0
VERTEX
  8
Top_Silk
  10
0.1417
  20
0.2531
  42
0
  0
VERTEX
  8
Top_Silk
  10
0.134
  20
0.2531
  42
0
  0
SEQEND
  0
POLYLINE
  8
Top_Silk
  6
CONTINUOUS
  66
1
  70
0
  40
0.0031
  41
0.0031
  0
VERTEX
  8
Top_Silk
  10
0.1325
  20
0.2531
  42
1
  0
VERTEX
  8
Top_Silk
  10
0.1356
  20
0.2531
  42
1
  0
VERTEX
  8
Top_Silk
  10
0.1325
  20
0.2531
  42
1
  0
SEQEND
  0
POLYLINE
  8
Top_Silk
  6
CONTINUOUS
  66
1
  70
0
  40
0.0062
  41
0.0062
  0
VERTEX
  8
Top_Silk
  10
0.1655
  20
0.2531
  42
0
  0
VERTEX
  8
Top_Silk
  10
0.1655
  20
0.2244
  42
0
  0
VERTEX
  8
Top_Silk
  10
0.1674
  20
0.2186
  42
0
  0
VERTEX
  8
Top_Silk
  10
0.1712
  20
0.2148
  42
0
  0
VERTEX
  8
Top_Silk
  10
0.177
  20
0.2129
  42
0
  0
VERTEX
  8
Top_Silk
  10
0.1808
  20
0.2129
  42
0
  0
VERTEX
  8
Top_Silk
  10
0.1865
  20
0.2148
  42
0
  0
VERTEX
  8
Top_Silk
  10
0.1904
  20
0.2186
  42
0
  0
VERTEX
  8
Top_Silk
  10
0.1923
  20
0.2244
  42
0
  0
VERTEX
  8
Top_Silk
  10
0.1923
  20
0.2531
  42
0
  0
SEQEND
  0
POLYLINE
  8
Top_Silk
  6
CONTINUOUS
  66
1
  70
0
  40
0.0031
  41
0.0031
  0
VERTEX
  8
Top_Silk
  10
0.164
  20
0.2531
  42
1
  0
VERTEX
  8
Top_Silk
  10
0.167
  20
0.2531
  42
1
  0
VERTEX
  8
Top_Silk
  10
0.164
  20
0.2531
  42
1
  0
SEQEND
  0
POLYLINE
  8
Top_Silk
  6
CONTINUOUS
  66
1
  70
0
  40
0.0031
  41
0.0031
  0
VERTEX
  8
Top_Silk
  10
0.1907
  20
0.2531
  42
1
  0
VERTEX
  8
Top_Silk
  10
0.1938
  20
0.2531
  42
1
  0
VERTEX
  8
Top_Silk
  10
0.1907
  20
0.2531
  42
1
  0
SEQEND
  0
POLYLINE
  8
Top_Silk
  6
CONTINUOUS
  66
1
  70
0
  40
0.0062
  41
0.0062
  0
VERTEX
  8
Top_Silk
  10
0.218
  20
0.2531
  42
0
  0
VERTEX
  8
Top_Silk
  10
0.218
  20
0.2129
  42
0
  0
SEQEND
  0
POLYLINE
  8
Top_Silk
  6
CONTINUOUS
  66
1
  70
0
  40
0.0031
  41
0.0031
  0
VERTEX
  8
Top_Silk
  10
0.2165
  20
0.2531
  42
1
  0
VERTEX
  8
Top_Silk
  10
0.2196
  20
0.2531
  42
1
  0
VERTEX
  8
Top_Silk
  10
0.2165
  20
0.2531
  42
1
  0
SEQEND
  0
POLYLINE
  8
Top_Silk
  6
CONTINUOUS
  66
1
  70
0
  40
0.0031
  41
0.0031
  0
VERTEX
  8
Top_Silk
  10
0.2165
  20
0.2129
  42
1
  0
VERTEX
  8
Top_Silk
  10
0.2196
  20
0.2129
  42
1
  0
VERTEX
  8
Top_Silk
  10
0.2165
  20
0.2129
  42
1
  0
SEQEND
  0
POLYLINE
  8
Top_Silk
  6
CONTINUOUS
  66
1
  70
0
  40
0.0062
  41
0.0062
  0
VERTEX
  8
Top_Silk
  10
0.2046
  20
0.2531
  42
0
  0
VERTEX
  8
Top_Silk
  10
0.2314
  20
0.2531
  42
0
  0
SEQEND
  0
POLYLINE
  8
Top_Silk
  6
CONTINUOUS
  66
1
  70
0
  40
0.0031
  41
0.0031
  0
VERTEX
  8
Top_Silk
  10
0.2031
  20
0.2531
  42
1
  0
VERTEX
  8
Top_Silk
  10
0.2062
  20
0.2531
  42
1
  0
VERTEX
  8
Top_Silk
  10
0.2031
  20
0.2531
  42
1
  0
SEQEND
  0
POLYLINE
  8
Top_Silk
  6
CONTINUOUS
  66
1
  70
0
  40
0.0031
  41
0.0031
  0
VERTEX
  8
Top_Silk
  10
0.2299
  20
0.2531
  42
1
  0
VERTEX
  8
Top_Silk
  10
0.233
  20
0.2531
  42
1
  0
VERTEX
  8
Top_Silk
  10
0.2299
  20
0.2531
  42
1
  0
SEQEND
  0
POLYLINE
  8
Top_Silk
  6
CONTINUOUS
  66
1
  70
0
  40
0.0093
  41
0.0093
  0
VERTEX
  8
Top_Silk
  10
0.0602
  20
0.6463
  42
0
  0
VERTEX
  8
Top_Silk
  10
0.0602
  20
0.6004
  42
0
  0
VERTEX
  8
Top_Silk
  10
0.0574
  20
0.5917
  42
0
  0
VERTEX
  8
Top_Silk
  10
0.0544
  20
0.5889
  42
0
  0
VERTEX
  8
Top_Silk
  10
0.0487
  20
0.586
  42
0
  0
VERTEX
  8
Top_Silk
  10
0.043
  20
0.586
  42
0
  0
VERTEX
  8
Top_Silk
  10
0.0373
  20
0.5889
  42
0
  0
VERTEX
  8
Top_Silk
  10
0.0344
  20
0.5917
  42
0
  0
VERTEX
  8
Top_Silk
  10
0.0315
  20
0.6004
  42
0
  0
VERTEX
  8
Top_Silk
  10
0.0315
  20
0.6061
  42
0
  0
SEQEND
  0
POLYLINE
  8
Top_Silk
  6
CONTINUOUS
  66
1
  70
0
  40
0.0046
  41
0.0046
  0
VERTEX
  8
Top_Silk
  10
0.0579
  20
0.6463
  42
1
  0
VERTEX
  8
Top_Silk
  10
0.0625
  20
0.6463
  42
1
  0
VERTEX
  8
Top_Silk
  10
0.0579
  20
0.6463
  42
1
  0
SEQEND
  0
POLYLINE
  8
Top_Silk
  6
CONTINUOUS
  66
1
  70
0
  40
0.0046
  41
0.0046
  0
VERTEX
  8
Top_Silk
  10
0.0292
  20
0.6061
  42
1
  0
VERTEX
  8
Top_Silk
  10
0.0338
  20
0.6061
  42
1
  0
VERTEX
  8
Top_Silk
  10
0.0292
  20
0.6061
  42
1
  0
SEQEND
  0
POLYLINE
  8
Top_Silk
  6
CONTINUOUS
  66
1
  70
0
  40
0.0093
  41
0.0093
  0
VERTEX
  8
Top_Silk
  10
0.0787
  20
0.6463
  42
0
  0
VERTEX
  8
Top_Silk
  10
0.0787
  20
0.586
  42
0
  0
SEQEND
  0
POLYLINE
  8
Top_Silk
  6
CONTINUOUS
  66
1
  70
0
  40
0.0046
  41
0.0046
  0
VERTEX
  8
Top_Silk
  10
0.0764
  20
0.6463
  42
1
  0
VERTEX
  8
Top_Silk
  10
0.0811
  20
0.6463
  42
1
  0
VERTEX
  8
Top_Silk
  10
0.0764
  20
0.6463
  42
1
  0
SEQEND
  0
POLYLINE
  8
Top_Silk
  6
CONTINUOUS
  66
1
  70
0
  40
0.0046
  41
0.0046
  0
VERTEX
  8
Top_Silk
  10
0.0764
  20
0.586
  42
1
  0
VERTEX
  8
Top_Silk
  10
0.0811
  20
0.586
  42
1
  0
VERTEX
  8
Top_Silk
  10
0.0764
  20
0.586
  42
1
  0
SEQEND
  0
POLYLINE
  8
Top_Silk
  6
CONTINUOUS
  66
1
  70
0
  40
0.0093
  41
0.0093
  0
VERTEX
  8
Top_Silk
  10
0.1189
  20
0.6463
  42
0
  0
VERTEX
  8
Top_Silk
  10
0.0787
  20
0.6061
  42
0
  0
SEQEND
  0
POLYLINE
  8
Top_Silk
  6
CONTINUOUS
  66
1
  70
0
  40
0.0046
  41
0.0046
  0
VERTEX
  8
Top_Silk
  10
0.1166
  20
0.6463
  42
1
  0
VERTEX
  8
Top_Silk
  10
0.1213
  20
0.6463
  42
1
  0
VERTEX
  8
Top_Silk
  10
0.1166
  20
0.6463
  42
1
  0
SEQEND
  0
POLYLINE
  8
Top_Silk
  6
CONTINUOUS
  66
1
  70
0
  40
0.0046
  41
0.0046
  0
VERTEX
  8
Top_Silk
  10
0.0764
  20
0.6061
  42
1
  0
VERTEX
  8
Top_Silk
  10
0.0811
  20
0.6061
  42
1
  0
VERTEX
  8
Top_Silk
  10
0.0764
  20
0.6061
  42
1
  0
SEQEND
  0
POLYLINE
  8
Top_Silk
  6
CONTINUOUS
  66
1
  70
0
  40
0.0093
  41
0.0093
  0
VERTEX
  8
Top_Silk
  10
0.0931
  20
0.6205
  42
0
  0
VERTEX
  8
Top_Silk
  10
0.1189
  20
0.586
  42
0
  0
SEQEND
  0
POLYLINE
  8
Top_Silk
  6
CONTINUOUS
  66
1
  70
0
  40
0.0046
  41
0.0046
  0
VERTEX
  8
Top_Silk
  10
0.0908
  20
0.6205
  42
1
  0
VERTEX
  8
Top_Silk
  10
0.0954
  20
0.6205
  42
1
  0
VERTEX
  8
Top_Silk
  10
0.0908
  20
0.6205
  42
1
  0
SEQEND
  0
POLYLINE
  8
Top_Silk
  6
CONTINUOUS
  66
1
  70
0
  40
0.0046
  41
0.0046
  0
VERTEX
  8
Top_Silk
  10
0.1166
  20
0.586
  42
1
  0
VERTEX
  8
Top_Silk
  10
0.1213
  20
0.586
  42
1
  0
VERTEX
  8
Top_Silk
  10
0.1166
  20
0.586
  42
1
  0
SEQEND
  0
POLYLINE
  8
Top_Silk
  6
CONTINUOUS
  66
1
  70
0
  40
0.0062
  41
0.0062
  0
VERTEX
  8
Top_Silk
  10
0.1623
  20
0.6243
  42
0
  0
VERTEX
  8
Top_Silk
  10
0.1375
  20
0.6243
  42
0
  0
VERTEX
  8
Top_Silk
  10
0.1375
  20
0.5841
  42
0
  0
VERTEX
  8
Top_Silk
  10
0.1623
  20
0.5841
  42
0
  0
SEQEND
  0
POLYLINE
  8
Top_Silk
  6
CONTINUOUS
  66
1
  70
0
  40
0.0031
  41
0.0031
  0
VERTEX
  8
Top_Silk
  10
0.1608
  20
0.6243
  42
1
  0
VERTEX
  8
Top_Silk
  10
0.1639
  20
0.6243
  42
1
  0
VERTEX
  8
Top_Silk
  10
0.1608
  20
0.6243
  42
1
  0
SEQEND
  0
POLYLINE
  8
Top_Silk
  6
CONTINUOUS
  66
1
  70
0
  40
0.0031
  41
0.0031
  0
VERTEX
  8
Top_Silk
  10
0.1608
  20
0.5841
  42
1
  0
VERTEX
  8
Top_Silk
  10
0.1639
  20
0.5841
  42
1
  0
VERTEX
  8
Top_Silk
  10
0.1608
  20
0.5841
  42
1
  0
SEQEND
  0
POLYLINE
  8
Top_Silk
  6
CONTINUOUS
  66
1
  70
0
  40
0.0062
  41
0.0062
  0
VERTEX
  8
Top_Silk
  10
0.1375
  20
0.6051
  42
0
  0
VERTEX
  8
Top_Silk
  10
0.1528
  20
0.6051
  42
0
  0
SEQEND
  0
POLYLINE
  8
Top_Silk
  6
CONTINUOUS
  66
1
  70
0
  40
0.0031
  41
0.0031
  0
VERTEX
  8
Top_Silk
  10
0.1359
  20
0.6051
  42
1
  0
VERTEX
  8
Top_Silk
  10
0.139
  20
0.6051
  42
1
  0
VERTEX
  8
Top_Silk
  10
0.1359
  20
0.6051
  42
1
  0
SEQEND
  0
POLYLINE
  8
Top_Silk
  6
CONTINUOUS
  66
1
  70
0
  40
0.0031
  41
0.0031
  0
VERTEX
  8
Top_Silk
  10
0.1512
  20
0.6051
  42
1
  0
VERTEX
  8
Top_Silk
  10
0.1543
  20
0.6051
  42
1
  0
VERTEX
  8
Top_Silk
  10
0.1512
  20
0.6051
  42
1
  0
SEQEND
  0
POLYLINE
  8
Top_Silk
  6
CONTINUOUS
  66
1
  70
0
  40
0.0062
  41
0.0062
  0
VERTEX
  8
Top_Silk
  10
0.1747
  20
0.6243
  42
0
  0
VERTEX
  8
Top_Silk
  10
0.1747
  20
0.5841
  42
0
  0
SEQEND
  0
POLYLINE
  8
Top_Silk
  6
CONTINUOUS
  66
1
  70
0
  40
0.0031
  41
0.0031
  0
VERTEX
  8
Top_Silk
  10
0.1731
  20
0.6243
  42
1
  0
VERTEX
  8
Top_Silk
  10
0.1762
  20
0.6243
  42
1
  0
VERTEX
  8
Top_Silk
  10
0.1731
  20
0.6243
  42
1
  0
SEQEND
  0
POLYLINE
  8
Top_Silk
  6
CONTINUOUS
  66
1
  70
0
  40
0.0031
  41
0.0031
  0
VERTEX
  8
Top_Silk
  10
0.1731
  20
0.5841
  42
1
  0
VERTEX
  8
Top_Silk
  10
0.1762
  20
0.5841
  42
1
  0
VERTEX
  8
Top_Silk
  10
0.1731
  20
0.5841
  42
1
  0
SEQEND
  0
POLYLINE
  8
Top_Silk
  6
CONTINUOUS
  66
1
  70
0
  40
0.0062
  41
0.0062
  0
VERTEX
  8
Top_Silk
  10
0.187
  20
0.5994
  42
0
  0
VERTEX
  8
Top_Silk
  10
0.21
  20
0.5994
  42
0
  0
VERTEX
  8
Top_Silk
  10
0.21
  20
0.6032
  42
0
  0
VERTEX
  8
Top_Silk
  10
0.2081
  20
0.6071
  42
0
  0
VERTEX
  8
Top_Silk
  10
0.2062
  20
0.609
  42
0
  0
VERTEX
  8
Top_Silk
  10
0.2023
  20
0.6109
  42
0
  0
VERTEX
  8
Top_Silk
  10
0.1966
  20
0.6109
  42
0
  0
VERTEX
  8
Top_Silk
  10
0.1928
  20
0.609
  42
0
  0
VERTEX
  8
Top_Silk
  10
0.1889
  20
0.6051
  42
0
  0
VERTEX
  8
Top_Silk
  10
0.187
  20
0.5994
  42
0
  0
VERTEX
  8
Top_Silk
  10
0.187
  20
0.5956
  42
0
  0
VERTEX
  8
Top_Silk
  10
0.1889
  20
0.5898
  42
0
  0
VERTEX
  8
Top_Silk
  10
0.1928
  20
0.586
  42
0
  0
VERTEX
  8
Top_Silk
  10
0.1966
  20
0.5841
  42
0
  0
VERTEX
  8
Top_Silk
  10
0.2023
  20
0.5841
  42
0
  0
VERTEX
  8
Top_Silk
  10
0.2062
  20
0.586
  42
0
  0
VERTEX
  8
Top_Silk
  10
0.21
  20
0.5898
  42
0
  0
SEQEND
  0
POLYLINE
  8
Top_Silk
  6
CONTINUOUS
  66
1
  70
0
  40
0.0031
  41
0.0031
  0
VERTEX
  8
Top_Silk
  10
0.1855
  20
0.5994
  42
1
  0
VERTEX
  8
Top_Silk
  10
0.1886
  20
0.5994
  42
1
  0
VERTEX
  8
Top_Silk
  10
0.1855
  20
0.5994
  42
1
  0
SEQEND
  0
POLYLINE
  8
Top_Silk
  6
CONTINUOUS
  66
1
  70
0
  40
0.0031
  41
0.0031
  0
VERTEX
  8
Top_Silk
  10
0.2084
  20
0.5898
  42
1
  0
VERTEX
  8
Top_Silk
  10
0.2115
  20
0.5898
  42
1
  0
VERTEX
  8
Top_Silk
  10
0.2084
  20
0.5898
  42
1
  0
SEQEND
  0
POLYLINE
  8
Top_Silk
  6
CONTINUOUS
  66
1
  70
0
  40
0.0062
  41
0.0062
  0
VERTEX
  8
Top_Silk
  10
0.2453
  20
0.6051
  42
0
  0
VERTEX
  8
Top_Silk
  10
0.2415
  20
0.609
  42
0
  0
VERTEX
  8
Top_Silk
  10
0.2376
  20
0.6109
  42
0
  0
VERTEX
  8
Top_Silk
  10
0.2319
  20
0.6109
  42
0
  0
VERTEX
  8
Top_Silk
  10
0.2281
  20
0.609
  42
0
  0
VERTEX
  8
Top_Silk
  10
0.2243
  20
0.6051
  42
0
  0
VERTEX
  8
Top_Silk
  10
0.2223
  20
0.5994
  42
0
  0
VERTEX
  8
Top_Silk
  10
0.2223
  20
0.5956
  42
0
  0
VERTEX
  8
Top_Silk
  10
0.2243
  20
0.5898
  42
0
  0
VERTEX
  8
Top_Silk
  10
0.2281
  20
0.586
  42
0
  0
VERTEX
  8
Top_Silk
  10
0.2319
  20
0.5841
  42
0
  0
VERTEX
  8
Top_Silk
  10
0.2376
  20
0.5841
  42
0
  0
VERTEX
  8
Top_Silk
  10
0.2415
  20
0.586
  42
0
  0
VERTEX
  8
Top_Silk
  10
0.2453
  20
0.5898
  42
0
  0
SEQEND
  0
POLYLINE
  8
Top_Silk
  6
CONTINUOUS
  66
1
  70
0
  40
0.0031
  41
0.0031
  0
VERTEX
  8
Top_Silk
  10
0.2438
  20
0.6051
  42
1
  0
VERTEX
  8
Top_Silk
  10
0.2469
  20
0.6051
  42
1
  0
VERTEX
  8
Top_Silk
  10
0.2438
  20
0.6051
  42
1
  0
SEQEND
  0
POLYLINE
  8
Top_Silk
  6
CONTINUOUS
  66
1
  70
0
  40
0.0031
  41
0.0031
  0
VERTEX
  8
Top_Silk
  10
0.2438
  20
0.5898
  42
1
  0
VERTEX
  8
Top_Silk
  10
0.2469
  20
0.5898
  42
1
  0
VERTEX
  8
Top_Silk
  10
0.2438
  20
0.5898
  42
1
  0
SEQEND
  0
POLYLINE
  8
Top_Silk
  6
CONTINUOUS
  66
1
  70
0
  40
0.0062
  41
0.0062
  0
VERTEX
  8
Top_Silk
  10
0.2634
  20
0.6243
  42
0
  0
VERTEX
  8
Top_Silk
  10
0.2634
  20
0.5917
  42
0
  0
VERTEX
  8
Top_Silk
  10
0.2653
  20
0.586
  42
0
  0
VERTEX
  8
Top_Silk
  10
0.2692
  20
0.5841
  42
0
  0
VERTEX
  8
Top_Silk
  10
0.273
  20
0.5841
  42
0
  0
SEQEND
  0
POLYLINE
  8
Top_Silk
  6
CONTINUOUS
  66
1
  70
0
  40
0.0031
  41
0.0031
  0
VERTEX
  8
Top_Silk
  10
0.2619
  20
0.6243
  42
1
  0
VERTEX
  8
Top_Silk
  10
0.265
  20
0.6243
  42
1
  0
VERTEX
  8
Top_Silk
  10
0.2619
  20
0.6243
  42
1
  0
SEQEND
  0
POLYLINE
  8
Top_Silk
  6
CONTINUOUS
  66
1
  70
0
  40
0.0031
  41
0.0031
  0
VERTEX
  8
Top_Silk
  10
0.2714
  20
0.5841
  42
1
  0
VERTEX
  8
Top_Silk
  10
0.2745
  20
0.5841
  42
1
  0
VERTEX
  8
Top_Silk
  10
0.2714
  20
0.5841
  42
1
  0
SEQEND
  0
POLYLINE
  8
Top_Silk
  6
CONTINUOUS
  66
1
  70
0
  40
0.0062
  41
0.0062
  0
VERTEX
  8
Top_Silk
  10
0.2577
  20
0.6109
  42
0
  0
VERTEX
  8
Top_Silk
  10
0.2711
  20
0.6109
  42
0
  0
SEQEND
  0
POLYLINE
  8
Top_Silk
  6
CONTINUOUS
  66
1
  70
0
  40
0.0031
  41
0.0031
  0
VERTEX
  8
Top_Silk
  10
0.2561
  20
0.6109
  42
1
  0
VERTEX
  8
Top_Silk
  10
0.2592
  20
0.6109
  42
1
  0
VERTEX
  8
Top_Silk
  10
0.2561
  20
0.6109
  42
1
  0
SEQEND
  0
POLYLINE
  8
Top_Silk
  6
CONTINUOUS
  66
1
  70
0
  40
0.0031
  41
0.0031
  0
VERTEX
  8
Top_Silk
  10
0.2695
  20
0.6109
  42
1
  0
VERTEX
  8
Top_Silk
  10
0.2726
  20
0.6109
  42
1
  0
VERTEX
  8
Top_Silk
  10
0.2695
  20
0.6109
  42
1
  0
SEQEND
  0
POLYLINE
  8
Top_Silk
  6
CONTINUOUS
  66
1
  70
0
  40
0.0062
  41
0.0062
  0
VERTEX
  8
Top_Silk
  10
0.2853
  20
0.6109
  42
0
  0
VERTEX
  8
Top_Silk
  10
0.2853
  20
0.5841
  42
0
  0
SEQEND
  0
POLYLINE
  8
Top_Silk
  6
CONTINUOUS
  66
1
  70
0
  40
0.0031
  41
0.0031
  0
VERTEX
  8
Top_Silk
  10
0.2838
  20
0.6109
  42
1
  0
VERTEX
  8
Top_Silk
  10
0.2869
  20
0.6109
  42
1
  0
VERTEX
  8
Top_Silk
  10
0.2838
  20
0.6109
  42
1
  0
SEQEND
  0
POLYLINE
  8
Top_Silk
  6
CONTINUOUS
  66
1
  70
0
  40
0.0031
  41
0.0031
  0
VERTEX
  8
Top_Silk
  10
0.2838
  20
0.5841
  42
1
  0
VERTEX
  8
Top_Silk
  10
0.2869
  20
0.5841
  42
1
  0
VERTEX
  8
Top_Silk
  10
0.2838
  20
0.5841
  42
1
  0
SEQEND
  0
POLYLINE
  8
Top_Silk
  6
CONTINUOUS
  66
1
  70
0
  40
0.0062
  41
0.0062
  0
VERTEX
  8
Top_Silk
  10
0.2853
  20
0.5994
  42
0
  0
VERTEX
  8
Top_Silk
  10
0.2873
  20
0.6051
  42
0
  0
VERTEX
  8
Top_Silk
  10
0.2911
  20
0.609
  42
0
  0
VERTEX
  8
Top_Silk
  10
0.2949
  20
0.6109
  42
0
  0
VERTEX
  8
Top_Silk
  10
0.3007
  20
0.6109
  42
0
  0
SEQEND
  0
POLYLINE
  8
Top_Silk
  6
CONTINUOUS
  66
1
  70
0
  40
0.0031
  41
0.0031
  0
VERTEX
  8
Top_Silk
  10
0.2838
  20
0.5994
  42
1
  0
VERTEX
  8
Top_Silk
  10
0.2869
  20
0.5994
  42
1
  0
VERTEX
  8
Top_Silk
  10
0.2838
  20
0.5994
  42
1
  0
SEQEND
  0
POLYLINE
  8
Top_Silk
  6
CONTINUOUS
  66
1
  70
0
  40
0.0031
  41
0.0031
  0
VERTEX
  8
Top_Silk
  10
0.2991
  20
0.6109
  42
1
  0
VERTEX
  8
Top_Silk
  10
0.3022
  20
0.6109
  42
1
  0
VERTEX
  8
Top_Silk
  10
0.2991
  20
0.6109
  42
1
  0
SEQEND
  0
POLYLINE
  8
Top_Silk
  6
CONTINUOUS
  66
1
  70
0
  40
0.0062
  41
0.0062
  0
VERTEX
  8
Top_Silk
  10
0.3226
  20
0.6109
  42
0
  0
VERTEX
  8
Top_Silk
  10
0.3188
  20
0.609
  42
0
  0
VERTEX
  8
Top_Silk
  10
0.3149
  20
0.6051
  42
0
  0
VERTEX
  8
Top_Silk
  10
0.313
  20
0.5994
  42
0
  0
VERTEX
  8
Top_Silk
  10
0.313
  20
0.5956
  42
0
  0
VERTEX
  8
Top_Silk
  10
0.3149
  20
0.5898
  42
0
  0
VERTEX
  8
Top_Silk
  10
0.3188
  20
0.586
  42
0
  0
VERTEX
  8
Top_Silk
  10
0.3226
  20
0.5841
  42
0
  0
VERTEX
  8
Top_Silk
  10
0.3283
  20
0.5841
  42
0
  0
VERTEX
  8
Top_Silk
  10
0.3322
  20
0.586
  42
0
  0
VERTEX
  8
Top_Silk
  10
0.336
  20
0.5898
  42
0
  0
VERTEX
  8
Top_Silk
  10
0.3379
  20
0.5956
  42
0
  0
VERTEX
  8
Top_Silk
  10
0.3379
  20
0.5994
  42
0
  0
VERTEX
  8
Top_Silk
  10
0.336
  20
0.6051
  42
0
  0
VERTEX
  8
Top_Silk
  10
0.3322
  20
0.609
  42
0
  0
VERTEX
  8
Top_Silk
  10
0.3283
  20
0.6109
  42
0
  0
VERTEX
  8
Top_Silk
  10
0.3226
  20
0.6109
  42
0
  0
SEQEND
  0
POLYLINE
  8
Top_Silk
  6
CONTINUOUS
  66
1
  70
0
  40
0.0031
  41
0.0031
  0
VERTEX
  8
Top_Silk
  10
0.321
  20
0.6109
  42
1
  0
VERTEX
  8
Top_Silk
  10
0.3241
  20
0.6109
  42
1
  0
VERTEX
  8
Top_Silk
  10
0.321
  20
0.6109
  42
1
  0
SEQEND
  0
POLYLINE
  8
Top_Silk
  6
CONTINUOUS
  66
1
  70
0
  40
0.0062
  41
0.0062
  0
VERTEX
  8
Top_Silk
  10
0.3503
  20
0.6109
  42
0
  0
VERTEX
  8
Top_Silk
  10
0.3503
  20
0.5841
  42
0
  0
SEQEND
  0
POLYLINE
  8
Top_Silk
  6
CONTINUOUS
  66
1
  70
0
  40
0.0031
  41
0.0031
  0
VERTEX
  8
Top_Silk
  10
0.3487
  20
0.6109
  42
1
  0
VERTEX
  8
Top_Silk
  10
0.3518
  20
0.6109
  42
1
  0
VERTEX
  8
Top_Silk
  10
0.3487
  20
0.6109
  42
1
  0
SEQEND
  0
POLYLINE
  8
Top_Silk
  6
CONTINUOUS
  66
1
  70
0
  40
0.0031
  41
0.0031
  0
VERTEX
  8
Top_Silk
  10
0.3487
  20
0.5841
  42
1
  0
VERTEX
  8
Top_Silk
  10
0.3518
  20
0.5841
  42
1
  0
VERTEX
  8
Top_Silk
  10
0.3487
  20
0.5841
  42
1
  0
SEQEND
  0
POLYLINE
  8
Top_Silk
  6
CONTINUOUS
  66
1
  70
0
  40
0.0062
  41
0.0062
  0
VERTEX
  8
Top_Silk
  10
0.3503
  20
0.6032
  42
0
  0
VERTEX
  8
Top_Silk
  10
0.356
  20
0.609
  42
0
  0
VERTEX
  8
Top_Silk
  10
0.3598
  20
0.6109
  42
0
  0
VERTEX
  8
Top_Silk
  10
0.3656
  20
0.6109
  42
0
  0
VERTEX
  8
Top_Silk
  10
0.3694
  20
0.609
  42
0
  0
VERTEX
  8
Top_Silk
  10
0.3713
  20
0.6032
  42
0
  0
VERTEX
  8
Top_Silk
  10
0.3713
  20
0.5841
  42
0
  0
SEQEND
  0
POLYLINE
  8
Top_Silk
  6
CONTINUOUS
  66
1
  70
0
  40
0.0031
  41
0.0031
  0
VERTEX
  8
Top_Silk
  10
0.3487
  20
0.6032
  42
1
  0
VERTEX
  8
Top_Silk
  10
0.3518
  20
0.6032
  42
1
  0
VERTEX
  8
Top_Silk
  10
0.3487
  20
0.6032
  42
1
  0
SEQEND
  0
POLYLINE
  8
Top_Silk
  6
CONTINUOUS
  66
1
  70
0
  40
0.0031
  41
0.0031
  0
VERTEX
  8
Top_Silk
  10
0.3698
  20
0.5841
  42
1
  0
VERTEX
  8
Top_Silk
  10
0.3728
  20
0.5841
  42
1
  0
VERTEX
  8
Top_Silk
  10
0.3698
  20
0.5841
  42
1
  0
SEQEND
  0
POLYLINE
  8
Top_Silk
  6
CONTINUOUS
  66
1
  70
0
  40
0.0062
  41
0.0062
  0
VERTEX
  8
Top_Silk
  10
0.3837
  20
0.6243
  42
0
  0
VERTEX
  8
Top_Silk
  10
0.3856
  20
0.6224
  42
0
  0
VERTEX
  8
Top_Silk
  10
0.3875
  20
0.6243
  42
0
  0
VERTEX
  8
Top_Silk
  10
0.3856
  20
0.6262
  42
0
  0
VERTEX
  8
Top_Silk
  10
0.3837
  20
0.6243
  42
0
  0
SEQEND
  0
POLYLINE
  8
Top_Silk
  6
CONTINUOUS
  66
1
  70
0
  40
0.0031
  41
0.0031
  0
VERTEX
  8
Top_Silk
  10
0.3821
  20
0.6243
  42
1
  0
VERTEX
  8
Top_Silk
  10
0.3852
  20
0.6243
  42
1
  0
VERTEX
  8
Top_Silk
  10
0.3821
  20
0.6243
  42
1
  0
SEQEND
  0
POLYLINE
  8
Top_Silk
  6
CONTINUOUS
  66
1
  70
0
  40
0.0062
  41
0.0062
  0
VERTEX
  8
Top_Silk
  10
0.3856
  20
0.6109
  42
0
  0
VERTEX
  8
Top_Silk
  10
0.3856
  20
0.5841
  42
0
  0
SEQEND
  0
POLYLINE
  8
Top_Silk
  6
CONTINUOUS
  66
1
  70
0
  40
0.0031
  41
0.0031
  0
VERTEX
  8
Top_Silk
  10
0.384
  20
0.6109
  42
1
  0
VERTEX
  8
Top_Silk
  10
0.3871
  20
0.6109
  42
1
  0
VERTEX
  8
Top_Silk
  10
0.384
  20
0.6109
  42
1
  0
SEQEND
  0
POLYLINE
  8
Top_Silk
  6
CONTINUOUS
  66
1
  70
0
  40
0.0031
  41
0.0031
  0
VERTEX
  8
Top_Silk
  10
0.384
  20
0.5841
  42
1
  0
VERTEX
  8
Top_Silk
  10
0.3871
  20
0.5841
  42
1
  0
VERTEX
  8
Top_Silk
  10
0.384
  20
0.5841
  42
1
  0
SEQEND
  0
POLYLINE
  8
Top_Silk
  6
CONTINUOUS
  66
1
  70
0
  40
0.0062
  41
0.0062
  0
VERTEX
  8
Top_Silk
  10
0.4228
  20
0.6051
  42
0
  0
VERTEX
  8
Top_Silk
  10
0.419
  20
0.609
  42
0
  0
VERTEX
  8
Top_Silk
  10
0.4151
  20
0.6109
  42
0
  0
VERTEX
  8
Top_Silk
  10
0.4094
  20
0.6109
  42
0
  0
VERTEX
  8
Top_Silk
  10
0.4056
  20
0.609
  42
0
  0
VERTEX
  8
Top_Silk
  10
0.4018
  20
0.6051
  42
0
  0
VERTEX
  8
Top_Silk
  10
0.3998
  20
0.5994
  42
0
  0
VERTEX
  8
Top_Silk
  10
0.3998
  20
0.5956
  42
0
  0
VERTEX
  8
Top_Silk
  10
0.4018
  20
0.5898
  42
0
  0
VERTEX
  8
Top_Silk
  10
0.4056
  20
0.586
  42
0
  0
VERTEX
  8
Top_Silk
  10
0.4094
  20
0.5841
  42
0
  0
VERTEX
  8
Top_Silk
  10
0.4151
  20
0.5841
  42
0
  0
VERTEX
  8
Top_Silk
  10
0.419
  20
0.586
  42
0
  0
VERTEX
  8
Top_Silk
  10
0.4228
  20
0.5898
  42
0
  0
SEQEND
  0
POLYLINE
  8
Top_Silk
  6
CONTINUOUS
  66
1
  70
0
  40
0.0031
  41
0.0031
  0
VERTEX
  8
Top_Silk
  10
0.4213
  20
0.6051
  42
1
  0
VERTEX
  8
Top_Silk
  10
0.4244
  20
0.6051
  42
1
  0
VERTEX
  8
Top_Silk
  10
0.4213
  20
0.6051
  42
1
  0
SEQEND
  0
POLYLINE
  8
Top_Silk
  6
CONTINUOUS
  66
1
  70
0
  40
0.0031
  41
0.0031
  0
VERTEX
  8
Top_Silk
  10
0.4213
  20
0.5898
  42
1
  0
VERTEX
  8
Top_Silk
  10
0.4244
  20
0.5898
  42
1
  0
VERTEX
  8
Top_Silk
  10
0.4213
  20
0.5898
  42
1
  0
SEQEND
  0
POLYLINE
  8
Top_Silk
  6
CONTINUOUS
  66
1
  70
0
  40
0.0062
  41
0.0062
  0
VERTEX
  8
Top_Silk
  10
0.4562
  20
0.6051
  42
0
  0
VERTEX
  8
Top_Silk
  10
0.4543
  20
0.609
  42
0
  0
VERTEX
  8
Top_Silk
  10
0.4486
  20
0.6109
  42
0
  0
VERTEX
  8
Top_Silk
  10
0.4428
  20
0.6109
  42
0
  0
VERTEX
  8
Top_Silk
  10
0.4371
  20
0.609
  42
0
  0
VERTEX
  8
Top_Silk
  10
0.4352
  20
0.6051
  42
0
  0
VERTEX
  8
Top_Silk
  10
0.4371
  20
0.6013
  42
0
  0
VERTEX
  8
Top_Silk
  10
0.4409
  20
0.5994
  42
0
  0
VERTEX
  8
Top_Silk
  10
0.4505
  20
0.5975
  42
0
  0
VERTEX
  8
Top_Silk
  10
0.4543
  20
0.5956
  42
0
  0
VERTEX
  8
Top_Silk
  10
0.4562
  20
0.5917
  42
0
  0
VERTEX
  8
Top_Silk
  10
0.4562
  20
0.5898
  42
0
  0
VERTEX
  8
Top_Silk
  10
0.4543
  20
0.586
  42
0
  0
VERTEX
  8
Top_Silk
  10
0.4486
  20
0.5841
  42
0
  0
VERTEX
  8
Top_Silk
  10
0.4428
  20
0.5841
  42
0
  0
VERTEX
  8
Top_Silk
  10
0.4371
  20
0.586
  42
0
  0
VERTEX
  8
Top_Silk
  10
0.4352
  20
0.5898
  42
0
  0
SEQEND
  0
POLYLINE
  8
Top_Silk
  6
CONTINUOUS
  66
1
  70
0
  40
0.0031
  41
0.0031
  0
VERTEX
  8
Top_Silk
  10
0.4547
  20
0.6051
  42
1
  0
VERTEX
  8
Top_Silk
  10
0.4578
  20
0.6051
  42
1
  0
VERTEX
  8
Top_Silk
  10
0.4547
  20
0.6051
  42
1
  0
SEQEND
  0
POLYLINE
  8
Top_Silk
  6
CONTINUOUS
  66
1
  70
0
  40
0.0031
  41
0.0031
  0
VERTEX
  8
Top_Silk
  10
0.4336
  20
0.5898
  42
1
  0
VERTEX
  8
Top_Silk
  10
0.4367
  20
0.5898
  42
1
  0
VERTEX
  8
Top_Silk
  10
0.4336
  20
0.5898
  42
1
  0
SEQEND
  0
POLYLINE
  8
Top_Silk
  6
CONTINUOUS
  66
1
  70
0
  40
0.0062
  41
0.0062
  0
VERTEX
  8
Top_Silk
  10
0.0312
  20
0.5439
  42
0
  0
VERTEX
  8
Top_Silk
  10
0.0388
  20
0.5171
  42
0
  0
VERTEX
  8
Top_Silk
  10
0.0465
  20
0.5439
  42
0
  0
VERTEX
  8
Top_Silk
  10
0.0541
  20
0.5171
  42
0
  0
VERTEX
  8
Top_Silk
  10
0.0618
  20
0.5439
  42
0
  0
SEQEND
  0
POLYLINE
  8
Top_Silk
  6
CONTINUOUS
  66
1
  70
0
  40
0.0031
  41
0.0031
  0
VERTEX
  8
Top_Silk
  10
0.0296
  20
0.5439
  42
1
  0
VERTEX
  8
Top_Silk
  10
0.0327
  20
0.5439
  42
1
  0
VERTEX
  8
Top_Silk
  10
0.0296
  20
0.5439
  42
1
  0
SEQEND
  0
POLYLINE
  8
Top_Silk
  6
CONTINUOUS
  66
1
  70
0
  40
0.0031
  41
0.0031
  0
VERTEX
  8
Top_Silk
  10
0.0602
  20
0.5439
  42
1
  0
VERTEX
  8
Top_Silk
  10
0.0633
  20
0.5439
  42
1
  0
VERTEX
  8
Top_Silk
  10
0.0602
  20
0.5439
  42
1
  0
SEQEND
  0
POLYLINE
  8
Top_Silk
  6
CONTINUOUS
  66
1
  70
0
  40
0.0062
  41
0.0062
  0
VERTEX
  8
Top_Silk
  10
0.0741
  20
0.5439
  42
0
  0
VERTEX
  8
Top_Silk
  10
0.0818
  20
0.5171
  42
0
  0
VERTEX
  8
Top_Silk
  10
0.0894
  20
0.5439
  42
0
  0
VERTEX
  8
Top_Silk
  10
0.0971
  20
0.5171
  42
0
  0
VERTEX
  8
Top_Silk
  10
0.1047
  20
0.5439
  42
0
  0
SEQEND
  0
POLYLINE
  8
Top_Silk
  6
CONTINUOUS
  66
1
  70
0
  40
0.0031
  41
0.0031
  0
VERTEX
  8
Top_Silk
  10
0.0726
  20
0.5439
  42
1
  0
VERTEX
  8
Top_Silk
  10
0.0757
  20
0.5439
  42
1
  0
VERTEX
  8
Top_Silk
  10
0.0726
  20
0.5439
  42
1
  0
SEQEND
  0
POLYLINE
  8
Top_Silk
  6
CONTINUOUS
  66
1
  70
0
  40
0.0031
  41
0.0031
  0
VERTEX
  8
Top_Silk
  10
0.1032
  20
0.5439
  42
1
  0
VERTEX
  8
Top_Silk
  10
0.1062
  20
0.5439
  42
1
  0
VERTEX
  8
Top_Silk
  10
0.1032
  20
0.5439
  42
1
  0
SEQEND
  0
POLYLINE
  8
Top_Silk
  6
CONTINUOUS
  66
1
  70
0
  40
0.0062
  41
0.0062
  0
VERTEX
  8
Top_Silk
  10
0.1171
  20
0.5439
  42
0
  0
VERTEX
  8
Top_Silk
  10
0.1247
  20
0.5171
  42
0
  0
VERTEX
  8
Top_Silk
  10
0.1324
  20
0.5439
  42
0
  0
VERTEX
  8
Top_Silk
  10
0.14
  20
0.5171
  42
0
  0
VERTEX
  8
Top_Silk
  10
0.1477
  20
0.5439
  42
0
  0
SEQEND
  0
POLYLINE
  8
Top_Silk
  6
CONTINUOUS
  66
1
  70
0
  40
0.0031
  41
0.0031
  0
VERTEX
  8
Top_Silk
  10
0.1155
  20
0.5439
  42
1
  0
VERTEX
  8
Top_Silk
  10
0.1186
  20
0.5439
  42
1
  0
VERTEX
  8
Top_Silk
  10
0.1155
  20
0.5439
  42
1
  0
SEQEND
  0
POLYLINE
  8
Top_Silk
  6
CONTINUOUS
  66
1
  70
0
  40
0.0031
  41
0.0031
  0
VERTEX
  8
Top_Silk
  10
0.1461
  20
0.5439
  42
1
  0
VERTEX
  8
Top_Silk
  10
0.1492
  20
0.5439
  42
1
  0
VERTEX
  8
Top_Silk
  10
0.1461
  20
0.5439
  42
1
  0
SEQEND
  0
POLYLINE
  8
Top_Silk
  6
CONTINUOUS
  66
1
  70
0
  40
0.0062
  41
0.0062
  0
VERTEX
  8
Top_Silk
  10
0.1619
  20
0.521
  42
0
  0
VERTEX
  8
Top_Silk
  10
0.16
  20
0.519
  42
0
  0
VERTEX
  8
Top_Silk
  10
0.1619
  20
0.5171
  42
0
  0
VERTEX
  8
Top_Silk
  10
0.1639
  20
0.519
  42
0
  0
VERTEX
  8
Top_Silk
  10
0.1619
  20
0.521
  42
0
  0
SEQEND
  0
POLYLINE
  8
Top_Silk
  6
CONTINUOUS
  66
1
  70
0
  40
0.0031
  41
0.0031
  0
VERTEX
  8
Top_Silk
  10
0.1604
  20
0.521
  42
1
  0
VERTEX
  8
Top_Silk
  10
0.1634
  20
0.521
  42
1
  0
VERTEX
  8
Top_Silk
  10
0.1604
  20
0.521
  42
1
  0
SEQEND
  0
POLYLINE
  8
Top_Silk
  6
CONTINUOUS
  66
1
  70
0
  40
0.0062
  41
0.0062
  0
VERTEX
  8
Top_Silk
  10
0.1839
  20
0.5574
  42
0
  0
VERTEX
  8
Top_Silk
  10
0.1858
  20
0.5555
  42
0
  0
VERTEX
  8
Top_Silk
  10
0.1877
  20
0.5574
  42
0
  0
VERTEX
  8
Top_Silk
  10
0.1858
  20
0.5593
  42
0
  0
VERTEX
  8
Top_Silk
  10
0.1839
  20
0.5574
  42
0
  0
SEQEND
  0
POLYLINE
  8
Top_Silk
  6
CONTINUOUS
  66
1
  70
0
  40
0.0031
  41
0.0031
  0
VERTEX
  8
Top_Silk
  10
0.1823
  20
0.5574
  42
1
  0
VERTEX
  8
Top_Silk
  10
0.1854
  20
0.5574
  42
1
  0
VERTEX
  8
Top_Silk
  10
0.1823
  20
0.5574
  42
1
  0
SEQEND
  0
POLYLINE
  8
Top_Silk
  6
CONTINUOUS
  66
1
  70
0
  40
0.0062
  41
0.0062
  0
VERTEX
  8
Top_Silk
  10
0.1858
  20
0.544
  42
0
  0
VERTEX
  8
Top_Silk
  10
0.1858
  20
0.5114
  42
0
  0
VERTEX
  8
Top_Silk
  10
0.1839
  20
0.5057
  42
0
  0
VERTEX
  8
Top_Silk
  10
0.18
  20
0.5038
  42
0
  0
VERTEX
  8
Top_Silk
  10
0.1762
  20
0.5038
  42
0
  0
SEQEND
  0
POLYLINE
  8
Top_Silk
  6
CONTINUOUS
  66
1
  70
0
  40
0.0031
  41
0.0031
  0
VERTEX
  8
Top_Silk
  10
0.1843
  20
0.544
  42
1
  0
VERTEX
  8
Top_Silk
  10
0.1873
  20
0.544
  42
1
  0
VERTEX
  8
Top_Silk
  10
0.1843
  20
0.544
  42
1
  0
SEQEND
  0
POLYLINE
  8
Top_Silk
  6
CONTINUOUS
  66
1
  70
0
  40
0.0031
  41
0.0031
  0
VERTEX
  8
Top_Silk
  10
0.1747
  20
0.5038
  42
1
  0
VERTEX
  8
Top_Silk
  10
0.1777
  20
0.5038
  42
1
  0
VERTEX
  8
Top_Silk
  10
0.1747
  20
0.5038
  42
1
  0
SEQEND
  0
POLYLINE
  8
Top_Silk
  6
CONTINUOUS
  66
1
  70
0
  40
0.0062
  41
0.0062
  0
VERTEX
  8
Top_Silk
  10
0.2001
  20
0.5573
  42
0
  0
VERTEX
  8
Top_Silk
  10
0.2001
  20
0.5171
  42
0
  0
SEQEND
  0
POLYLINE
  8
Top_Silk
  6
CONTINUOUS
  66
1
  70
0
  40
0.0031
  41
0.0031
  0
VERTEX
  8
Top_Silk
  10
0.1985
  20
0.5573
  42
1
  0
VERTEX
  8
Top_Silk
  10
0.2016
  20
0.5573
  42
1
  0
VERTEX
  8
Top_Silk
  10
0.1985
  20
0.5573
  42
1
  0
SEQEND
  0
POLYLINE
  8
Top_Silk
  6
CONTINUOUS
  66
1
  70
0
  40
0.0031
  41
0.0031
  0
VERTEX
  8
Top_Silk
  10
0.1985
  20
0.5171
  42
1
  0
VERTEX
  8
Top_Silk
  10
0.2016
  20
0.5171
  42
1
  0
VERTEX
  8
Top_Silk
  10
0.1985
  20
0.5171
  42
1
  0
SEQEND
  0
POLYLINE
  8
Top_Silk
  6
CONTINUOUS
  66
1
  70
0
  40
0.0062
  41
0.0062
  0
VERTEX
  8
Top_Silk
  10
0.2192
  20
0.5439
  42
0
  0
VERTEX
  8
Top_Silk
  10
0.2001
  20
0.5248
  42
0
  0
SEQEND
  0
POLYLINE
  8
Top_Silk
  6
CONTINUOUS
  66
1
  70
0
  40
0.0031
  41
0.0031
  0
VERTEX
  8
Top_Silk
  10
0.2177
  20
0.5439
  42
1
  0
VERTEX
  8
Top_Silk
  10
0.2207
  20
0.5439
  42
1
  0
VERTEX
  8
Top_Silk
  10
0.2177
  20
0.5439
  42
1
  0
SEQEND
  0
POLYLINE
  8
Top_Silk
  6
CONTINUOUS
  66
1
  70
0
  40
0.0031
  41
0.0031
  0
VERTEX
  8
Top_Silk
  10
0.1985
  20
0.5248
  42
1
  0
VERTEX
  8
Top_Silk
  10
0.2016
  20
0.5248
  42
1
  0
VERTEX
  8
Top_Silk
  10
0.1985
  20
0.5248
  42
1
  0
SEQEND
  0
POLYLINE
  8
Top_Silk
  6
CONTINUOUS
  66
1
  70
0
  40
0.0062
  41
0.0062
  0
VERTEX
  8
Top_Silk
  10
0.2077
  20
0.5324
  42
0
  0
VERTEX
  8
Top_Silk
  10
0.2211
  20
0.5171
  42
0
  0
SEQEND
  0
POLYLINE
  8
Top_Silk
  6
CONTINUOUS
  66
1
  70
0
  40
0.0031
  41
0.0031
  0
VERTEX
  8
Top_Silk
  10
0.2062
  20
0.5324
  42
1
  0
VERTEX
  8
Top_Silk
  10
0.2092
  20
0.5324
  42
1
  0
VERTEX
  8
Top_Silk
  10
0.2062
  20
0.5324
  42
1
  0
SEQEND
  0
POLYLINE
  8
Top_Silk
  6
CONTINUOUS
  66
1
  70
0
  40
0.0031
  41
0.0031
  0
VERTEX
  8
Top_Silk
  10
0.2196
  20
0.5171
  42
1
  0
VERTEX
  8
Top_Silk
  10
0.2226
  20
0.5171
  42
1
  0
VERTEX
  8
Top_Silk
  10
0.2196
  20
0.5171
  42
1
  0
SEQEND
  0
POLYLINE
  8
Top_Silk
  6
CONTINUOUS
  66
1
  70
0
  40
0.0062
  41
0.0062
  0
VERTEX
  8
Top_Silk
  10
0.2334
  20
0.5324
  42
0
  0
VERTEX
  8
Top_Silk
  10
0.2564
  20
0.5324
  42
0
  0
VERTEX
  8
Top_Silk
  10
0.2564
  20
0.5363
  42
0
  0
VERTEX
  8
Top_Silk
  10
0.2545
  20
0.5401
  42
0
  0
VERTEX
  8
Top_Silk
  10
0.2526
  20
0.542
  42
0
  0
VERTEX
  8
Top_Silk
  10
0.2487
  20
0.5439
  42
0
  0
VERTEX
  8
Top_Silk
  10
0.243
  20
0.5439
  42
0
  0
VERTEX
  8
Top_Silk
  10
0.2392
  20
0.542
  42
0
  0
VERTEX
  8
Top_Silk
  10
0.2353
  20
0.5382
  42
0
  0
VERTEX
  8
Top_Silk
  10
0.2334
  20
0.5324
  42
0
  0
VERTEX
  8
Top_Silk
  10
0.2334
  20
0.5286
  42
0
  0
VERTEX
  8
Top_Silk
  10
0.2353
  20
0.5229
  42
0
  0
VERTEX
  8
Top_Silk
  10
0.2392
  20
0.5191
  42
0
  0
VERTEX
  8
Top_Silk
  10
0.243
  20
0.5171
  42
0
  0
VERTEX
  8
Top_Silk
  10
0.2487
  20
0.5171
  42
0
  0
VERTEX
  8
Top_Silk
  10
0.2526
  20
0.5191
  42
0
  0
VERTEX
  8
Top_Silk
  10
0.2564
  20
0.5229
  42
0
  0
SEQEND
  0
POLYLINE
  8
Top_Silk
  6
CONTINUOUS
  66
1
  70
0
  40
0.0031
  41
0.0031
  0
VERTEX
  8
Top_Silk
  10
0.2319
  20
0.5324
  42
1
  0
VERTEX
  8
Top_Silk
  10
0.235
  20
0.5324
  42
1
  0
VERTEX
  8
Top_Silk
  10
0.2319
  20
0.5324
  42
1
  0
SEQEND
  0
POLYLINE
  8
Top_Silk
  6
CONTINUOUS
  66
1
  70
0
  40
0.0031
  41
0.0031
  0
VERTEX
  8
Top_Silk
  10
0.2549
  20
0.5229
  42
1
  0
VERTEX
  8
Top_Silk
  10
0.2579
  20
0.5229
  42
1
  0
VERTEX
  8
Top_Silk
  10
0.2549
  20
0.5229
  42
1
  0
SEQEND
  0
POLYLINE
  8
Top_Silk
  6
CONTINUOUS
  66
1
  70
0
  40
0.0062
  41
0.0062
  0
VERTEX
  8
Top_Silk
  10
0.2687
  20
0.5573
  42
0
  0
VERTEX
  8
Top_Silk
  10
0.2687
  20
0.5171
  42
0
  0
SEQEND
  0
POLYLINE
  8
Top_Silk
  6
CONTINUOUS
  66
1
  70
0
  40
0.0031
  41
0.0031
  0
VERTEX
  8
Top_Silk
  10
0.2672
  20
0.5573
  42
1
  0
VERTEX
  8
Top_Silk
  10
0.2703
  20
0.5573
  42
1
  0
VERTEX
  8
Top_Silk
  10
0.2672
  20
0.5573
  42
1
  0
SEQEND
  0
POLYLINE
  8
Top_Silk
  6
CONTINUOUS
  66
1
  70
0
  40
0.0031
  41
0.0031
  0
VERTEX
  8
Top_Silk
  10
0.2672
  20
0.5171
  42
1
  0
VERTEX
  8
Top_Silk
  10
0.2703
  20
0.5171
  42
1
  0
VERTEX
  8
Top_Silk
  10
0.2672
  20
0.5171
  42
1
  0
SEQEND
  0
POLYLINE
  8
Top_Silk
  6
CONTINUOUS
  66
1
  70
0
  40
0.0062
  41
0.0062
  0
VERTEX
  8
Top_Silk
  10
0.2811
  20
0.5324
  42
0
  0
VERTEX
  8
Top_Silk
  10
0.304
  20
0.5324
  42
0
  0
VERTEX
  8
Top_Silk
  10
0.304
  20
0.5363
  42
0
  0
VERTEX
  8
Top_Silk
  10
0.3021
  20
0.5401
  42
0
  0
VERTEX
  8
Top_Silk
  10
0.3002
  20
0.542
  42
0
  0
VERTEX
  8
Top_Silk
  10
0.2964
  20
0.5439
  42
0
  0
VERTEX
  8
Top_Silk
  10
0.2906
  20
0.5439
  42
0
  0
VERTEX
  8
Top_Silk
  10
0.2868
  20
0.542
  42
0
  0
VERTEX
  8
Top_Silk
  10
0.283
  20
0.5382
  42
0
  0
VERTEX
  8
Top_Silk
  10
0.2811
  20
0.5324
  42
0
  0
VERTEX
  8
Top_Silk
  10
0.2811
  20
0.5286
  42
0
  0
VERTEX
  8
Top_Silk
  10
0.283
  20
0.5229
  42
0
  0
VERTEX
  8
Top_Silk
  10
0.2868
  20
0.5191
  42
0
  0
VERTEX
  8
Top_Silk
  10
0.2906
  20
0.5171
  42
0
  0
VERTEX
  8
Top_Silk
  10
0.2964
  20
0.5171
  42
0
  0
VERTEX
  8
Top_Silk
  10
0.3002
  20
0.5191
  42
0
  0
VERTEX
  8
Top_Silk
  10
0.304
  20
0.5229
  42
0
  0
SEQEND
  0
POLYLINE
  8
Top_Silk
  6
CONTINUOUS
  66
1
  70
0
  40
0.0031
  41
0.0031
  0
VERTEX
  8
Top_Silk
  10
0.2796
  20
0.5324
  42
1
  0
VERTEX
  8
Top_Silk
  10
0.2826
  20
0.5324
  42
1
  0
VERTEX
  8
Top_Silk
  10
0.2796
  20
0.5324
  42
1
  0
SEQEND
  0
POLYLINE
  8
Top_Silk
  6
CONTINUOUS
  66
1
  70
0
  40
0.0031
  41
0.0031
  0
VERTEX
  8
Top_Silk
  10
0.3025
  20
0.5229
  42
1
  0
VERTEX
  8
Top_Silk
  10
0.3056
  20
0.5229
  42
1
  0
VERTEX
  8
Top_Silk
  10
0.3025
  20
0.5229
  42
1
  0
SEQEND
  0
POLYLINE
  8
Top_Silk
  6
CONTINUOUS
  66
1
  70
0
  40
0.0062
  41
0.0062
  0
VERTEX
  8
Top_Silk
  10
0.3394
  20
0.5382
  42
0
  0
VERTEX
  8
Top_Silk
  10
0.3355
  20
0.542
  42
0
  0
VERTEX
  8
Top_Silk
  10
0.3317
  20
0.5439
  42
0
  0
VERTEX
  8
Top_Silk
  10
0.326
  20
0.5439
  42
0
  0
VERTEX
  8
Top_Silk
  10
0.3221
  20
0.542
  42
0
  0
VERTEX
  8
Top_Silk
  10
0.3183
  20
0.5382
  42
0
  0
VERTEX
  8
Top_Silk
  10
0.3164
  20
0.5324
  42
0
  0
VERTEX
  8
Top_Silk
  10
0.3164
  20
0.5286
  42
0
  0
VERTEX
  8
Top_Silk
  10
0.3183
  20
0.5229
  42
0
  0
VERTEX
  8
Top_Silk
  10
0.3221
  20
0.5191
  42
0
  0
VERTEX
  8
Top_Silk
  10
0.326
  20
0.5171
  42
0
  0
VERTEX
  8
Top_Silk
  10
0.3317
  20
0.5171
  42
0
  0
VERTEX
  8
Top_Silk
  10
0.3355
  20
0.5191
  42
0
  0
VERTEX
  8
Top_Silk
  10
0.3394
  20
0.5229
  42
0
  0
SEQEND
  0
POLYLINE
  8
Top_Silk
  6
CONTINUOUS
  66
1
  70
0
  40
0.0031
  41
0.0031
  0
VERTEX
  8
Top_Silk
  10
0.3378
  20
0.5382
  42
1
  0
VERTEX
  8
Top_Silk
  10
0.3409
  20
0.5382
  42
1
  0
VERTEX
  8
Top_Silk
  10
0.3378
  20
0.5382
  42
1
  0
SEQEND
  0
POLYLINE
  8
Top_Silk
  6
CONTINUOUS
  66
1
  70
0
  40
0.0031
  41
0.0031
  0
VERTEX
  8
Top_Silk
  10
0.3378
  20
0.5229
  42
1
  0
VERTEX
  8
Top_Silk
  10
0.3409
  20
0.5229
  42
1
  0
VERTEX
  8
Top_Silk
  10
0.3378
  20
0.5229
  42
1
  0
SEQEND
  0
POLYLINE
  8
Top_Silk
  6
CONTINUOUS
  66
1
  70
0
  40
0.0062
  41
0.0062
  0
VERTEX
  8
Top_Silk
  10
0.3536
  20
0.521
  42
0
  0
VERTEX
  8
Top_Silk
  10
0.3517
  20
0.519
  42
0
  0
VERTEX
  8
Top_Silk
  10
0.3536
  20
0.5171
  42
0
  0
VERTEX
  8
Top_Silk
  10
0.3556
  20
0.519
  42
0
  0
VERTEX
  8
Top_Silk
  10
0.3536
  20
0.521
  42
0
  0
SEQEND
  0
POLYLINE
  8
Top_Silk
  6
CONTINUOUS
  66
1
  70
0
  40
0.0031
  41
0.0031
  0
VERTEX
  8
Top_Silk
  10
0.3521
  20
0.521
  42
1
  0
VERTEX
  8
Top_Silk
  10
0.3552
  20
0.521
  42
1
  0
VERTEX
  8
Top_Silk
  10
0.3521
  20
0.521
  42
1
  0
SEQEND
  0
POLYLINE
  8
Top_Silk
  6
CONTINUOUS
  66
1
  70
0
  40
0.0062
  41
0.0062
  0
VERTEX
  8
Top_Silk
  10
0.3909
  20
0.5382
  42
0
  0
VERTEX
  8
Top_Silk
  10
0.3871
  20
0.542
  42
0
  0
VERTEX
  8
Top_Silk
  10
0.3832
  20
0.5439
  42
0
  0
VERTEX
  8
Top_Silk
  10
0.3775
  20
0.5439
  42
0
  0
VERTEX
  8
Top_Silk
  10
0.3737
  20
0.542
  42
0
  0
VERTEX
  8
Top_Silk
  10
0.3699
  20
0.5382
  42
0
  0
VERTEX
  8
Top_Silk
  10
0.3679
  20
0.5324
  42
0
  0
VERTEX
  8
Top_Silk
  10
0.3679
  20
0.5286
  42
0
  0
VERTEX
  8
Top_Silk
  10
0.3699
  20
0.5229
  42
0
  0
VERTEX
  8
Top_Silk
  10
0.3737
  20
0.5191
  42
0
  0
VERTEX
  8
Top_Silk
  10
0.3775
  20
0.5171
  42
0
  0
VERTEX
  8
Top_Silk
  10
0.3832
  20
0.5171
  42
0
  0
VERTEX
  8
Top_Silk
  10
0.3871
  20
0.5191
  42
0
  0
VERTEX
  8
Top_Silk
  10
0.3909
  20
0.5229
  42
0
  0
SEQEND
  0
POLYLINE
  8
Top_Silk
  6
CONTINUOUS
  66
1
  70
0
  40
0.0031
  41
0.0031
  0
VERTEX
  8
Top_Silk
  10
0.3894
  20
0.5382
  42
1
  0
VERTEX
  8
Top_Silk
  10
0.3925
  20
0.5382
  42
1
  0
VERTEX
  8
Top_Silk
  10
0.3894
  20
0.5382
  42
1
  0
SEQEND
  0
POLYLINE
  8
Top_Silk
  6
CONTINUOUS
  66
1
  70
0
  40
0.0031
  41
0.0031
  0
VERTEX
  8
Top_Silk
  10
0.3894
  20
0.5229
  42
1
  0
VERTEX
  8
Top_Silk
  10
0.3925
  20
0.5229
  42
1
  0
VERTEX
  8
Top_Silk
  10
0.3894
  20
0.5229
  42
1
  0
SEQEND
  0
POLYLINE
  8
Top_Silk
  6
CONTINUOUS
  66
1
  70
0
  40
0.0062
  41
0.0062
  0
VERTEX
  8
Top_Silk
  10
0.4128
  20
0.5439
  42
0
  0
VERTEX
  8
Top_Silk
  10
0.409
  20
0.542
  42
0
  0
VERTEX
  8
Top_Silk
  10
0.4052
  20
0.5382
  42
0
  0
VERTEX
  8
Top_Silk
  10
0.4033
  20
0.5324
  42
0
  0
VERTEX
  8
Top_Silk
  10
0.4033
  20
0.5286
  42
0
  0
VERTEX
  8
Top_Silk
  10
0.4052
  20
0.5229
  42
0
  0
VERTEX
  8
Top_Silk
  10
0.409
  20
0.5191
  42
0
  0
VERTEX
  8
Top_Silk
  10
0.4128
  20
0.5171
  42
0
  0
VERTEX
  8
Top_Silk
  10
0.4186
  20
0.5171
  42
0
  0
VERTEX
  8
Top_Silk
  10
0.4224
  20
0.5191
  42
0
  0
VERTEX
  8
Top_Silk
  10
0.4262
  20
0.5229
  42
0
  0
VERTEX
  8
Top_Silk
  10
0.4282
  20
0.5286
  42
0
  0
VERTEX
  8
Top_Silk
  10
0.4282
  20
0.5324
  42
0
  0
VERTEX
  8
Top_Silk
  10
0.4262
  20
0.5382
  42
0
  0
VERTEX
  8
Top_Silk
  10
0.4224
  20
0.542
  42
0
  0
VERTEX
  8
Top_Silk
  10
0.4186
  20
0.5439
  42
0
  0
VERTEX
  8
Top_Silk
  10
0.4128
  20
0.5439
  42
0
  0
SEQEND
  0
POLYLINE
  8
Top_Silk
  6
CONTINUOUS
  66
1
  70
0
  40
0.0031
  41
0.0031
  0
VERTEX
  8
Top_Silk
  10
0.4113
  20
0.5439
  42
1
  0
VERTEX
  8
Top_Silk
  10
0.4144
  20
0.5439
  42
1
  0
VERTEX
  8
Top_Silk
  10
0.4113
  20
0.5439
  42
1
  0
SEQEND
  0
POLYLINE
  8
Top_Silk
  6
CONTINUOUS
  66
1
  70
0
  40
0.0062
  41
0.0062
  0
VERTEX
  8
Top_Silk
  10
0.4424
  20
0.521
  42
0
  0
VERTEX
  8
Top_Silk
  10
0.4405
  20
0.519
  42
0
  0
VERTEX
  8
Top_Silk
  10
0.4424
  20
0.5171
  42
0
  0
VERTEX
  8
Top_Silk
  10
0.4444
  20
0.519
  42
0
  0
VERTEX
  8
Top_Silk
  10
0.4424
  20
0.521
  42
0
  0
SEQEND
  0
POLYLINE
  8
Top_Silk
  6
CONTINUOUS
  66
1
  70
0
  40
0.0031
  41
0.0031
  0
VERTEX
  8
Top_Silk
  10
0.4409
  20
0.521
  42
1
  0
VERTEX
  8
Top_Silk
  10
0.444
  20
0.521
  42
1
  0
VERTEX
  8
Top_Silk
  10
0.4409
  20
0.521
  42
1
  0
SEQEND
  0
POLYLINE
  8
Top_Silk
  6
CONTINUOUS
  66
1
  70
0
  40
0.0062
  41
0.0062
  0
VERTEX
  8
Top_Silk
  10
0.4567
  20
0.5573
  42
0
  0
VERTEX
  8
Top_Silk
  10
0.4567
  20
0.5171
  42
0
  0
SEQEND
  0
POLYLINE
  8
Top_Silk
  6
CONTINUOUS
  66
1
  70
0
  40
0.0031
  41
0.0031
  0
VERTEX
  8
Top_Silk
  10
0.4552
  20
0.5573
  42
1
  0
VERTEX
  8
Top_Silk
  10
0.4583
  20
0.5573
  42
1
  0
VERTEX
  8
Top_Silk
  10
0.4552
  20
0.5573
  42
1
  0
SEQEND
  0
POLYLINE
  8
Top_Silk
  6
CONTINUOUS
  66
1
  70
0
  40
0.0031
  41
0.0031
  0
VERTEX
  8
Top_Silk
  10
0.4552
  20
0.5171
  42
1
  0
VERTEX
  8
Top_Silk
  10
0.4583
  20
0.5171
  42
1
  0
VERTEX
  8
Top_Silk
  10
0.4552
  20
0.5171
  42
1
  0
SEQEND
  0
POLYLINE
  8
Top_Silk
  6
CONTINUOUS
  66
1
  70
0
  40
0.0062
  41
0.0062
  0
VERTEX
  8
Top_Silk
  10
0.4759
  20
0.5439
  42
0
  0
VERTEX
  8
Top_Silk
  10
0.4567
  20
0.5248
  42
0
  0
SEQEND
  0
POLYLINE
  8
Top_Silk
  6
CONTINUOUS
  66
1
  70
0
  40
0.0031
  41
0.0031
  0
VERTEX
  8
Top_Silk
  10
0.4743
  20
0.5439
  42
1
  0
VERTEX
  8
Top_Silk
  10
0.4774
  20
0.5439
  42
1
  0
VERTEX
  8
Top_Silk
  10
0.4743
  20
0.5439
  42
1
  0
SEQEND
  0
POLYLINE
  8
Top_Silk
  6
CONTINUOUS
  66
1
  70
0
  40
0.0031
  41
0.0031
  0
VERTEX
  8
Top_Silk
  10
0.4552
  20
0.5248
  42
1
  0
VERTEX
  8
Top_Silk
  10
0.4583
  20
0.5248
  42
1
  0
VERTEX
  8
Top_Silk
  10
0.4552
  20
0.5248
  42
1
  0
SEQEND
  0
POLYLINE
  8
Top_Silk
  6
CONTINUOUS
  66
1
  70
0
  40
0.0062
  41
0.0062
  0
VERTEX
  8
Top_Silk
  10
0.4644
  20
0.5324
  42
0
  0
VERTEX
  8
Top_Silk
  10
0.4778
  20
0.5171
  42
0
  0
SEQEND
  0
POLYLINE
  8
Top_Silk
  6
CONTINUOUS
  66
1
  70
0
  40
0.0031
  41
0.0031
  0
VERTEX
  8
Top_Silk
  10
0.4628
  20
0.5324
  42
1
  0
VERTEX
  8
Top_Silk
  10
0.4659
  20
0.5324
  42
1
  0
VERTEX
  8
Top_Silk
  10
0.4628
  20
0.5324
  42
1
  0
SEQEND
  0
POLYLINE
  8
Top_Silk
  6
CONTINUOUS
  66
1
  70
0
  40
0.0031
  41
0.0031
  0
VERTEX
  8
Top_Silk
  10
0.4762
  20
0.5171
  42
1
  0
VERTEX
  8
Top_Silk
  10
0.4793
  20
0.5171
  42
1
  0
VERTEX
  8
Top_Silk
  10
0.4762
  20
0.5171
  42
1
  0
SEQEND
  0
POLYLINE
  8
Top_Silk
  6
CONTINUOUS
  66
1
  70
0
  40
0.0062
  41
0.0062
  0
VERTEX
  8
Top_Silk
  10
0.4901
  20
0.5439
  42
0
  0
VERTEX
  8
Top_Silk
  10
0.4901
  20
0.5171
  42
0
  0
SEQEND
  0
POLYLINE
  8
Top_Silk
  6
CONTINUOUS
  66
1
  70
0
  40
0.0031
  41
0.0031
  0
VERTEX
  8
Top_Silk
  10
0.4886
  20
0.5439
  42
1
  0
VERTEX
  8
Top_Silk
  10
0.4917
  20
0.5439
  42
1
  0
VERTEX
  8
Top_Silk
  10
0.4886
  20
0.5439
  42
1
  0
SEQEND
  0
POLYLINE
  8
Top_Silk
  6
CONTINUOUS
  66
1
  70
0
  40
0.0031
  41
0.0031
  0
VERTEX
  8
Top_Silk
  10
0.4886
  20
0.5171
  42
1
  0
VERTEX
  8
Top_Silk
  10
0.4917
  20
0.5171
  42
1
  0
VERTEX
  8
Top_Silk
  10
0.4886
  20
0.5171
  42
1
  0
SEQEND
  0
POLYLINE
  8
Top_Silk
  6
CONTINUOUS
  66
1
  70
0
  40
0.0062
  41
0.0062
  0
VERTEX
  8
Top_Silk
  10
0.4901
  20
0.5324
  42
0
  0
VERTEX
  8
Top_Silk
  10
0.4921
  20
0.5382
  42
0
  0
VERTEX
  8
Top_Silk
  10
0.4959
  20
0.542
  42
0
  0
VERTEX
  8
Top_Silk
  10
0.4997
  20
0.5439
  42
0
  0
VERTEX
  8
Top_Silk
  10
0.5055
  20
0.5439
  42
0
  0
SEQEND
  0
POLYLINE
  8
Top_Silk
  6
CONTINUOUS
  66
1
  70
0
  40
0.0031
  41
0.0031
  0
VERTEX
  8
Top_Silk
  10
0.4886
  20
0.5324
  42
1
  0
VERTEX
  8
Top_Silk
  10
0.4917
  20
0.5324
  42
1
  0
VERTEX
  8
Top_Silk
  10
0.4886
  20
0.5324
  42
1
  0
SEQEND
  0
POLYLINE
  8
Top_Silk
  6
CONTINUOUS
  66
1
  70
0
  40
0.0031
  41
0.0031
  0
VERTEX
  8
Top_Silk
  10
0.5039
  20
0.5439
  42
1
  0
VERTEX
  8
Top_Silk
  10
0.507
  20
0.5439
  42
1
  0
VERTEX
  8
Top_Silk
  10
0.5039
  20
0.5439
  42
1
  0
SEQEND
  0
POLYLINE
  8
Top_Silk
  6
CONTINUOUS
  66
1
  70
0
  40
0.0062
  41
0.0062
  0
VERTEX
  8
Top_Silk
  10
0.4374
  20
0.4813
  42
0
  0
VERTEX
  8
Top_Silk
  10
0.4527
  20
0.4411
  42
0
  0
VERTEX
  8
Top_Silk
  10
0.468
  20
0.4813
  42
0
  0
SEQEND
  0
POLYLINE
  8
Top_Silk
  6
CONTINUOUS
  66
1
  70
0
  40
0.0031
  41
0.0031
  0
VERTEX
  8
Top_Silk
  10
0.4358
  20
0.4813
  42
1
  0
VERTEX
  8
Top_Silk
  10
0.4389
  20
0.4813
  42
1
  0
VERTEX
  8
Top_Silk
  10
0.4358
  20
0.4813
  42
1
  0
SEQEND
  0
POLYLINE
  8
Top_Silk
  6
CONTINUOUS
  66
1
  70
0
  40
0.0031
  41
0.0031
  0
VERTEX
  8
Top_Silk
  10
0.4664
  20
0.4813
  42
1
  0
VERTEX
  8
Top_Silk
  10
0.4695
  20
0.4813
  42
1
  0
VERTEX
  8
Top_Silk
  10
0.4664
  20
0.4813
  42
1
  0
SEQEND
  0
POLYLINE
  8
Top_Silk
  6
CONTINUOUS
  66
1
  70
0
  40
0.0062
  41
0.0062
  0
VERTEX
  8
Top_Silk
  10
0.4803
  20
0.4736
  42
0
  0
VERTEX
  8
Top_Silk
  10
0.4842
  20
0.4755
  42
0
  0
VERTEX
  8
Top_Silk
  10
0.4899
  20
0.4812
  42
0
  0
VERTEX
  8
Top_Silk
  10
0.4899
  20
0.4411
  42
0
  0
SEQEND
  0
POLYLINE
  8
Top_Silk
  6
CONTINUOUS
  66
1
  70
0
  40
0.0031
  41
0.0031
  0
VERTEX
  8
Top_Silk
  10
0.4788
  20
0.4736
  42
1
  0
VERTEX
  8
Top_Silk
  10
0.4819
  20
0.4736
  42
1
  0
VERTEX
  8
Top_Silk
  10
0.4788
  20
0.4736
  42
1
  0
SEQEND
  0
POLYLINE
  8
Top_Silk
  6
CONTINUOUS
  66
1
  70
0
  40
0.0031
  41
0.0031
  0
VERTEX
  8
Top_Silk
  10
0.4884
  20
0.4411
  42
1
  0
VERTEX
  8
Top_Silk
  10
0.4915
  20
0.4411
  42
1
  0
VERTEX
  8
Top_Silk
  10
0.4884
  20
0.4411
  42
1
  0
SEQEND
  0
POLYLINE
  8
Top_Silk
  6
CONTINUOUS
  66
1
  70
0
  40
0.0062
  41
0.0062
  0
VERTEX
  8
Top_Silk
  10
0.5042
  20
0.4449
  42
0
  0
VERTEX
  8
Top_Silk
  10
0.5023
  20
0.443
  42
0
  0
VERTEX
  8
Top_Silk
  10
0.5042
  20
0.4411
  42
0
  0
VERTEX
  8
Top_Silk
  10
0.5061
  20
0.443
  42
0
  0
VERTEX
  8
Top_Silk
  10
0.5042
  20
0.4449
  42
0
  0
SEQEND
  0
POLYLINE
  8
Top_Silk
  6
CONTINUOUS
  66
1
  70
0
  40
0.0031
  41
0.0031
  0
VERTEX
  8
Top_Silk
  10
0.5026
  20
0.4449
  42
1
  0
VERTEX
  8
Top_Silk
  10
0.5057
  20
0.4449
  42
1
  0
VERTEX
  8
Top_Silk
  10
0.5026
  20
0.4449
  42
1
  0
SEQEND
  0
POLYLINE
  8
Top_Silk
  6
CONTINUOUS
  66
1
  70
0
  40
0.0062
  41
0.0062
  0
VERTEX
  8
Top_Silk
  10
0.53
  20
0.4812
  42
0
  0
VERTEX
  8
Top_Silk
  10
0.5242
  20
0.4793
  42
0
  0
VERTEX
  8
Top_Silk
  10
0.5204
  20
0.4736
  42
0
  0
VERTEX
  8
Top_Silk
  10
0.5185
  20
0.464
  42
0
  0
VERTEX
  8
Top_Silk
  10
0.5185
  20
0.4583
  42
0
  0
VERTEX
  8
Top_Silk
  10
0.5204
  20
0.4487
  42
0
  0
VERTEX
  8
Top_Silk
  10
0.5242
  20
0.443
  42
0
  0
VERTEX
  8
Top_Silk
  10
0.53
  20
0.4411
  42
0
  0
VERTEX
  8
Top_Silk
  10
0.5338
  20
0.4411
  42
0
  0
VERTEX
  8
Top_Silk
  10
0.5395
  20
0.443
  42
0
  0
VERTEX
  8
Top_Silk
  10
0.5433
  20
0.4487
  42
0
  0
VERTEX
  8
Top_Silk
  10
0.5453
  20
0.4583
  42
0
  0
VERTEX
  8
Top_Silk
  10
0.5453
  20
0.464
  42
0
  0
VERTEX
  8
Top_Silk
  10
0.5433
  20
0.4736
  42
0
  0
VERTEX
  8
Top_Silk
  10
0.5395
  20
0.4793
  42
0
  0
VERTEX
  8
Top_Silk
  10
0.5338
  20
0.4812
  42
0
  0
VERTEX
  8
Top_Silk
  10
0.53
  20
0.4812
  42
0
  0
SEQEND
  0
POLYLINE
  8
Top_Silk
  6
CONTINUOUS
  66
1
  70
0
  40
0.0031
  41
0.0031
  0
VERTEX
  8
Top_Silk
  10
0.5284
  20
0.4812
  42
1
  0
VERTEX
  8
Top_Silk
  10
0.5315
  20
0.4812
  42
1
  0
VERTEX
  8
Top_Silk
  10
0.5284
  20
0.4812
  42
1
  0
SEQEND
  0
POLYLINE
  8
Top_Silk
  6
CONTINUOUS
  66
1
  70
0
  40
0.0062
  41
0.0062
  0
VERTEX
  8
Top_Silk
  10
0.5433
  20
0.4736
  42
0
  0
VERTEX
  8
Top_Silk
  10
0.5204
  20
0.4487
  42
0
  0
SEQEND
  0
POLYLINE
  8
Top_Silk
  6
CONTINUOUS
  66
1
  70
0
  40
0.0031
  41
0.0031
  0
VERTEX
  8
Top_Silk
  10
0.5418
  20
0.4736
  42
1
  0
VERTEX
  8
Top_Silk
  10
0.5449
  20
0.4736
  42
1
  0
VERTEX
  8
Top_Silk
  10
0.5418
  20
0.4736
  42
1
  0
SEQEND
  0
POLYLINE
  8
Top_Silk
  6
CONTINUOUS
  66
1
  70
0
  40
0.0031
  41
0.0031
  0
VERTEX
  8
Top_Silk
  10
0.5188
  20
0.4487
  42
1
  0
VERTEX
  8
Top_Silk
  10
0.5219
  20
0.4487
  42
1
  0
VERTEX
  8
Top_Silk
  10
0.5188
  20
0.4487
  42
1
  0
SEQEND
  0
POLYLINE
  8
Top_Silk
  6
CONTINUOUS
  66
1
  70
0
  40
0.0046
  41
0.0046
  0
VERTEX
  8
Top_Silk
  10
0.2742
  20
0.2854
  42
0
  0
VERTEX
  8
Top_Silk
  10
0.2742
  20
0.2983
  42
0
  0
VERTEX
  8
Top_Silk
  10
0.2728
  20
0.3026
  42
0
  0
VERTEX
  8
Top_Silk
  10
0.2714
  20
0.3041
  42
0
  0
VERTEX
  8
Top_Silk
  10
0.2685
  20
0.3055
  42
0
  0
VERTEX
  8
Top_Silk
  10
0.2656
  20
0.3055
  42
0
  0
VERTEX
  8
Top_Silk
  10
0.2628
  20
0.3041
  42
0
  0
VERTEX
  8
Top_Silk
  10
0.2613
  20
0.3026
  42
0
  0
VERTEX
  8
Top_Silk
  10
0.2599
  20
0.2983
  42
0
  0
VERTEX
  8
Top_Silk
  10
0.2599
  20
0.2854
  42
0
  0
VERTEX
  8
Top_Silk
  10
0.29
  20
0.2854
  42
0
  0
SEQEND
  0
POLYLINE
  8
Top_Silk
  6
CONTINUOUS
  66
1
  70
0
  40
0.0023
  41
0.0023
  0
VERTEX
  8
Top_Silk
  10
0.2731
  20
0.2854
  42
1
  0
VERTEX
  8
Top_Silk
  10
0.2754
  20
0.2854
  42
1
  0
VERTEX
  8
Top_Silk
  10
0.2731
  20
0.2854
  42
1
  0
SEQEND
  0
POLYLINE
  8
Top_Silk
  6
CONTINUOUS
  66
1
  70
0
  40
0.0023
  41
0.0023
  0
VERTEX
  8
Top_Silk
  10
0.2889
  20
0.2854
  42
1
  0
VERTEX
  8
Top_Silk
  10
0.2912
  20
0.2854
  42
1
  0
VERTEX
  8
Top_Silk
  10
0.2889
  20
0.2854
  42
1
  0
SEQEND
  0
POLYLINE
  8
Top_Silk
  6
CONTINUOUS
  66
1
  70
0
  40
0.0046
  41
0.0046
  0
VERTEX
  8
Top_Silk
  10
0.2742
  20
0.2955
  42
0
  0
VERTEX
  8
Top_Silk
  10
0.29
  20
0.3055
  42
0
  0
SEQEND
  0
POLYLINE
  8
Top_Silk
  6
CONTINUOUS
  66
1
  70
0
  40
0.0023
  41
0.0023
  0
VERTEX
  8
Top_Silk
  10
0.2731
  20
0.2955
  42
1
  0
VERTEX
  8
Top_Silk
  10
0.2754
  20
0.2955
  42
1
  0
VERTEX
  8
Top_Silk
  10
0.2731
  20
0.2955
  42
1
  0
SEQEND
  0
POLYLINE
  8
Top_Silk
  6
CONTINUOUS
  66
1
  70
0
  40
0.0023
  41
0.0023
  0
VERTEX
  8
Top_Silk
  10
0.2889
  20
0.3055
  42
1
  0
VERTEX
  8
Top_Silk
  10
0.2912
  20
0.3055
  42
1
  0
VERTEX
  8
Top_Silk
  10
0.2889
  20
0.3055
  42
1
  0
SEQEND
  0
POLYLINE
  8
Top_Silk
  6
CONTINUOUS
  66
1
  70
0
  40
0.0046
  41
0.0046
  0
VERTEX
  8
Top_Silk
  10
0.2657
  20
0.3148
  42
0
  0
VERTEX
  8
Top_Silk
  10
0.2642
  20
0.3177
  42
0
  0
VERTEX
  8
Top_Silk
  10
0.2599
  20
0.322
  42
0
  0
VERTEX
  8
Top_Silk
  10
0.29
  20
0.322
  42
0
  0
SEQEND
  0
POLYLINE
  8
Top_Silk
  6
CONTINUOUS
  66
1
  70
0
  40
0.0023
  41
0.0023
  0
VERTEX
  8
Top_Silk
  10
0.2645
  20
0.3148
  42
1
  0
VERTEX
  8
Top_Silk
  10
0.2668
  20
0.3148
  42
1
  0
VERTEX
  8
Top_Silk
  10
0.2645
  20
0.3148
  42
1
  0
SEQEND
  0
POLYLINE
  8
Top_Silk
  6
CONTINUOUS
  66
1
  70
0
  40
0.0023
  41
0.0023
  0
VERTEX
  8
Top_Silk
  10
0.2889
  20
0.322
  42
1
  0
VERTEX
  8
Top_Silk
  10
0.2912
  20
0.322
  42
1
  0
VERTEX
  8
Top_Silk
  10
0.2889
  20
0.322
  42
1
  0
SEQEND
  0
POLYLINE
  8
Top_Silk
  6
CONTINUOUS
  66
1
  70
0
  40
0.0046
  41
0.0046
  0
VERTEX
  8
Top_Silk
  10
0.295
  20
0.3312
  42
0
  0
VERTEX
  8
Top_Silk
  10
0.295
  20
0.3585
  42
0
  0
SEQEND
  0
POLYLINE
  8
Top_Silk
  6
CONTINUOUS
  66
1
  70
0
  40
0.0023
  41
0.0023
  0
VERTEX
  8
Top_Silk
  10
0.2938
  20
0.3312
  42
1
  0
VERTEX
  8
Top_Silk
  10
0.2962
  20
0.3312
  42
1
  0
VERTEX
  8
Top_Silk
  10
0.2938
  20
0.3312
  42
1
  0
SEQEND
  0
POLYLINE
  8
Top_Silk
  6
CONTINUOUS
  66
1
  70
0
  40
0.0023
  41
0.0023
  0
VERTEX
  8
Top_Silk
  10
0.2938
  20
0.3585
  42
1
  0
VERTEX
  8
Top_Silk
  10
0.2962
  20
0.3585
  42
1
  0
VERTEX
  8
Top_Silk
  10
0.2938
  20
0.3585
  42
1
  0
SEQEND
  0
POLYLINE
  8
Top_Silk
  6
CONTINUOUS
  66
1
  70
0
  40
0.0046
  41
0.0046
  0
VERTEX
  8
Top_Silk
  10
0.2599
  20
0.3749
  42
0
  0
VERTEX
  8
Top_Silk
  10
0.2613
  20
0.3706
  42
0
  0
VERTEX
  8
Top_Silk
  10
0.2642
  20
0.3692
  42
0
  0
VERTEX
  8
Top_Silk
  10
0.2671
  20
0.3692
  42
0
  0
VERTEX
  8
Top_Silk
  10
0.2699
  20
0.3706
  42
0
  0
VERTEX
  8
Top_Silk
  10
0.2714
  20
0.3735
  42
0
  0
VERTEX
  8
Top_Silk
  10
0.2728
  20
0.3792
  42
0
  0
VERTEX
  8
Top_Silk
  10
0.2742
  20
0.3835
  42
0
  0
VERTEX
  8
Top_Silk
  10
0.2771
  20
0.3864
  42
0
  0
VERTEX
  8
Top_Silk
  10
0.28
  20
0.3878
  42
0
  0
VERTEX
  8
Top_Silk
  10
0.2843
  20
0.3878
  42
0
  0
VERTEX
  8
Top_Silk
  10
0.2871
  20
0.3864
  42
0
  0
VERTEX
  8
Top_Silk
  10
0.2886
  20
0.385
  42
0
  0
VERTEX
  8
Top_Silk
  10
0.29
  20
0.3807
  42
0
  0
VERTEX
  8
Top_Silk
  10
0.29
  20
0.3749
  42
0
  0
VERTEX
  8
Top_Silk
  10
0.2886
  20
0.3706
  42
0
  0
VERTEX
  8
Top_Silk
  10
0.2871
  20
0.3692
  42
0
  0
VERTEX
  8
Top_Silk
  10
0.2843
  20
0.3678
  42
0
  0
VERTEX
  8
Top_Silk
  10
0.28
  20
0.3678
  42
0
  0
VERTEX
  8
Top_Silk
  10
0.2771
  20
0.3692
  42
0
  0
VERTEX
  8
Top_Silk
  10
0.2742
  20
0.3721
  42
0
  0
VERTEX
  8
Top_Silk
  10
0.2728
  20
0.3763
  42
0
  0
VERTEX
  8
Top_Silk
  10
0.2714
  20
0.3821
  42
0
  0
VERTEX
  8
Top_Silk
  10
0.2699
  20
0.385
  42
0
  0
VERTEX
  8
Top_Silk
  10
0.2671
  20
0.3864
  42
0
  0
VERTEX
  8
Top_Silk
  10
0.2642
  20
0.3864
  42
0
  0
VERTEX
  8
Top_Silk
  10
0.2613
  20
0.385
  42
0
  0
VERTEX
  8
Top_Silk
  10
0.2599
  20
0.3807
  42
0
  0
VERTEX
  8
Top_Silk
  10
0.2599
  20
0.3749
  42
0
  0
SEQEND
  0
POLYLINE
  8
Top_Silk
  6
CONTINUOUS
  66
1
  70
0
  40
0.0023
  41
0.0023
  0
VERTEX
  8
Top_Silk
  10
0.2588
  20
0.3749
  42
1
  0
VERTEX
  8
Top_Silk
  10
0.2611
  20
0.3749
  42
1
  0
VERTEX
  8
Top_Silk
  10
0.2588
  20
0.3749
  42
1
  0
SEQEND
  0
POLYLINE
  8
Top_Silk
  6
CONTINUOUS
  66
1
  70
0
  40
0.0046
  41
0.0046
  0
VERTEX
  8
Top_Silk
  10
0.3734
  20
0.2756
  42
0
  0
VERTEX
  8
Top_Silk
  10
0.3949
  20
0.2756
  42
0
  0
VERTEX
  8
Top_Silk
  10
0.3992
  20
0.277
  42
0
  0
VERTEX
  8
Top_Silk
  10
0.4021
  20
0.2799
  42
0
  0
VERTEX
  8
Top_Silk
  10
0.4035
  20
0.2842
  42
0
  0
VERTEX
  8
Top_Silk
  10
0.4035
  20
0.2871
  42
0
  0
VERTEX
  8
Top_Silk
  10
0.4021
  20
0.2914
  42
0
  0
VERTEX
  8
Top_Silk
  10
0.3992
  20
0.2943
  42
0
  0
VERTEX
  8
Top_Silk
  10
0.3949
  20
0.2957
  42
0
  0
VERTEX
  8
Top_Silk
  10
0.3734
  20
0.2957
  42
0
  0
SEQEND
  0
POLYLINE
  8
Top_Silk
  6
CONTINUOUS
  66
1
  70
0
  40
0.0023
  41
0.0023
  0
VERTEX
  8
Top_Silk
  10
0.3722
  20
0.2756
  42
1
  0
VERTEX
  8
Top_Silk
  10
0.3745
  20
0.2756
  42
1
  0
VERTEX
  8
Top_Silk
  10
0.3722
  20
0.2756
  42
1
  0
SEQEND
  0
POLYLINE
  8
Top_Silk
  6
CONTINUOUS
  66
1
  70
0
  40
0.0023
  41
0.0023
  0
VERTEX
  8
Top_Silk
  10
0.3722
  20
0.2957
  42
1
  0
VERTEX
  8
Top_Silk
  10
0.3745
  20
0.2957
  42
1
  0
VERTEX
  8
Top_Silk
  10
0.3722
  20
0.2957
  42
1
  0
SEQEND
  0
POLYLINE
  8
Top_Silk
  6
CONTINUOUS
  66
1
  70
0
  40
0.0046
  41
0.0046
  0
VERTEX
  8
Top_Silk
  10
0.3806
  20
0.3064
  42
0
  0
VERTEX
  8
Top_Silk
  10
0.3792
  20
0.3064
  42
0
  0
VERTEX
  8
Top_Silk
  10
0.3763
  20
0.3079
  42
0
  0
VERTEX
  8
Top_Silk
  10
0.3748
  20
0.3093
  42
0
  0
VERTEX
  8
Top_Silk
  10
0.3734
  20
0.3122
  42
0
  0
VERTEX
  8
Top_Silk
  10
0.3734
  20
0.3179
  42
0
  0
VERTEX
  8
Top_Silk
  10
0.3748
  20
0.3208
  42
0
  0
VERTEX
  8
Top_Silk
  10
0.3763
  20
0.3222
  42
0
  0
VERTEX
  8
Top_Silk
  10
0.3792
  20
0.3236
  42
0
  0
VERTEX
  8
Top_Silk
  10
0.382
  20
0.3236
  42
0
  0
VERTEX
  8
Top_Silk
  10
0.3849
  20
0.3222
  42
0
  0
VERTEX
  8
Top_Silk
  10
0.3892
  20
0.3193
  42
0
  0
VERTEX
  8
Top_Silk
  10
0.4035
  20
0.305
  42
0
  0
VERTEX
  8
Top_Silk
  10
0.4035
  20
0.3251
  42
0
  0
SEQEND
  0
POLYLINE
  8
Top_Silk
  6
CONTINUOUS
  66
1
  70
0
  40
0.0023
  41
0.0023
  0
VERTEX
  8
Top_Silk
  10
0.3794
  20
0.3064
  42
1
  0
VERTEX
  8
Top_Silk
  10
0.3817
  20
0.3064
  42
1
  0
VERTEX
  8
Top_Silk
  10
0.3794
  20
0.3064
  42
1
  0
SEQEND
  0
POLYLINE
  8
Top_Silk
  6
CONTINUOUS
  66
1
  70
0
  40
0.0023
  41
0.0023
  0
VERTEX
  8
Top_Silk
  10
0.4024
  20
0.3251
  42
1
  0
VERTEX
  8
Top_Silk
  10
0.4047
  20
0.3251
  42
1
  0
VERTEX
  8
Top_Silk
  10
0.4024
  20
0.3251
  42
1
  0
SEQEND
  0
POLYLINE
  8
Top_Silk
  6
CONTINUOUS
  66
1
  70
0
  40
0.0046
  41
0.0046
  0
VERTEX
  8
Top_Silk
  10
0.4085
  20
0.3343
  42
0
  0
VERTEX
  8
Top_Silk
  10
0.4085
  20
0.3616
  42
0
  0
SEQEND
  0
POLYLINE
  8
Top_Silk
  6
CONTINUOUS
  66
1
  70
0
  40
0.0023
  41
0.0023
  0
VERTEX
  8
Top_Silk
  10
0.4073
  20
0.3343
  42
1
  0
VERTEX
  8
Top_Silk
  10
0.4097
  20
0.3343
  42
1
  0
VERTEX
  8
Top_Silk
  10
0.4073
  20
0.3343
  42
1
  0
SEQEND
  0
POLYLINE
  8
Top_Silk
  6
CONTINUOUS
  66
1
  70
0
  40
0.0023
  41
0.0023
  0
VERTEX
  8
Top_Silk
  10
0.4073
  20
0.3616
  42
1
  0
VERTEX
  8
Top_Silk
  10
0.4097
  20
0.3616
  42
1
  0
VERTEX
  8
Top_Silk
  10
0.4073
  20
0.3616
  42
1
  0
SEQEND
  0
POLYLINE
  8
Top_Silk
  6
CONTINUOUS
  66
1
  70
0
  40
0.0046
  41
0.0046
  0
VERTEX
  8
Top_Silk
  10
0.3734
  20
0.378
  42
0
  0
VERTEX
  8
Top_Silk
  10
0.3748
  20
0.3737
  42
0
  0
VERTEX
  8
Top_Silk
  10
0.3777
  20
0.3723
  42
0
  0
VERTEX
  8
Top_Silk
  10
0.3806
  20
0.3723
  42
0
  0
VERTEX
  8
Top_Silk
  10
0.3834
  20
0.3737
  42
0
  0
VERTEX
  8
Top_Silk
  10
0.3849
  20
0.3766
  42
0
  0
VERTEX
  8
Top_Silk
  10
0.3863
  20
0.3823
  42
0
  0
VERTEX
  8
Top_Silk
  10
0.3877
  20
0.3866
  42
0
  0
VERTEX
  8
Top_Silk
  10
0.3906
  20
0.3895
  42
0
  0
VERTEX
  8
Top_Silk
  10
0.3935
  20
0.3909
  42
0
  0
VERTEX
  8
Top_Silk
  10
0.3978
  20
0.3909
  42
0
  0
VERTEX
  8
Top_Silk
  10
0.4006
  20
0.3895
  42
0
  0
VERTEX
  8
Top_Silk
  10
0.4021
  20
0.3881
  42
0
  0
VERTEX
  8
Top_Silk
  10
0.4035
  20
0.3838
  42
0
  0
VERTEX
  8
Top_Silk
  10
0.4035
  20
0.378
  42
0
  0
VERTEX
  8
Top_Silk
  10
0.4021
  20
0.3737
  42
0
  0
VERTEX
  8
Top_Silk
  10
0.4006
  20
0.3723
  42
0
  0
VERTEX
  8
Top_Silk
  10
0.3978
  20
0.3709
  42
0
  0
VERTEX
  8
Top_Silk
  10
0.3935
  20
0.3709
  42
0
  0
VERTEX
  8
Top_Silk
  10
0.3906
  20
0.3723
  42
0
  0
VERTEX
  8
Top_Silk
  10
0.3877
  20
0.3752
  42
0
  0
VERTEX
  8
Top_Silk
  10
0.3863
  20
0.3794
  42
0
  0
VERTEX
  8
Top_Silk
  10
0.3849
  20
0.3852
  42
0
  0
VERTEX
  8
Top_Silk
  10
0.3834
  20
0.3881
  42
0
  0
VERTEX
  8
Top_Silk
  10
0.3806
  20
0.3895
  42
0
  0
VERTEX
  8
Top_Silk
  10
0.3777
  20
0.3895
  42
0
  0
VERTEX
  8
Top_Silk
  10
0.3748
  20
0.3881
  42
0
  0
VERTEX
  8
Top_Silk
  10
0.3734
  20
0.3838
  42
0
  0
VERTEX
  8
Top_Silk
  10
0.3734
  20
0.378
  42
0
  0
SEQEND
  0
POLYLINE
  8
Top_Silk
  6
CONTINUOUS
  66
1
  70
0
  40
0.0023
  41
0.0023
  0
VERTEX
  8
Top_Silk
  10
0.3723
  20
0.378
  42
1
  0
VERTEX
  8
Top_Silk
  10
0.3746
  20
0.378
  42
1
  0
VERTEX
  8
Top_Silk
  10
0.3723
  20
0.378
  42
1
  0
SEQEND
  0
POLYLINE
  8
Top_Mask
  6
CONTINUOUS
  66
1
  70
0
  40
0.063
  41
0.063
  0
VERTEX
  8
Top_Mask
  10
0.622
  20
0.5512
  42
1
  0
VERTEX
  8
Top_Mask
  10
0.5591
  20
0.5512
  42
1
  0
VERTEX
  8
Top_Mask
  10
0.622
  20
0.5512
  42
1
  0
SEQEND
  0
POLYLINE
  8
Top_Mask
  6
CONTINUOUS
  66
1
  70
0
  40
0.063
  41
0.063
  0
VERTEX
  8
Top_Mask
  10
0.5591
  20
0.5512
  42
1
  0
VERTEX
  8
Top_Mask
  10
0.622
  20
0.5512
  42
1
  0
VERTEX
  8
Top_Mask
  10
0.5591
  20
0.5512
  42
1
  0
SEQEND
  0
POLYLINE
  8
Top_Mask
  6
CONTINUOUS
  66
1
  70
0
  40
0.063
  41
0.063
  0
VERTEX
  8
Top_Mask
  10
0.622
  20
0.1181
  42
1
  0
VERTEX
  8
Top_Mask
  10
0.5591
  20
0.1181
  42
1
  0
VERTEX
  8
Top_Mask
  10
0.622
  20
0.1181
  42
1
  0
SEQEND
  0
POLYLINE
  8
Top_Mask
  6
CONTINUOUS
  66
1
  70
0
  40
0.063
  41
0.063
  0
VERTEX
  8
Top_Mask
  10
0.5591
  20
0.1181
  42
1
  0
VERTEX
  8
Top_Mask
  10
0.622
  20
0.1181
  42
1
  0
VERTEX
  8
Top_Mask
  10
0.5591
  20
0.1181
  42
1
  0
SEQEND
  0
POLYLINE
  8
Top_Mask
  6
CONTINUOUS
  66
1
  70
0
  40
0.037
  41
0.037
  0
VERTEX
  8
Top_Mask
  10
0.0736
  20
0.4331
  42
1
  0
VERTEX
  8
Top_Mask
  10
0.0366
  20
0.4331
  42
1
  0
VERTEX
  8
Top_Mask
  10
0.0736
  20
0.4331
  42
1
  0
SEQEND
  0
POLYLINE
  8
Top_Mask
  6
CONTINUOUS
  66
1
  70
0
  40
0.037
  41
0.037
  0
VERTEX
  8
Top_Mask
  10
0.0366
  20
0.4331
  42
1
  0
VERTEX
  8
Top_Mask
  10
0.0736
  20
0.4331
  42
1
  0
VERTEX
  8
Top_Mask
  10
0.0366
  20
0.4331
  42
1
  0
SEQEND
  0
POLYLINE
  8
Top_Mask
  6
CONTINUOUS
  66
1
  70
0
  40
0.037
  41
0.037
  0
VERTEX
  8
Top_Mask
  10
0.0736
  20
0.3331
  42
1
  0
VERTEX
  8
Top_Mask
  10
0.0366
  20
0.3331
  42
1
  0
VERTEX
  8
Top_Mask
  10
0.0736
  20
0.3331
  42
1
  0
SEQEND
  0
POLYLINE
  8
Top_Mask
  6
CONTINUOUS
  66
1
  70
0
  40
0.037
  41
0.037
  0
VERTEX
  8
Top_Mask
  10
0.0366
  20
0.3331
  42
1
  0
VERTEX
  8
Top_Mask
  10
0.0736
  20
0.3331
  42
1
  0
VERTEX
  8
Top_Mask
  10
0.0366
  20
0.3331
  42
1
  0
SEQEND
  0
POLYLINE
  8
Top_Mask
  6
CONTINUOUS
  66
1
  70
0
  40
0.037
  41
0.037
  0
VERTEX
  8
Top_Mask
  10
0.0736
  20
0.2331
  42
1
  0
VERTEX
  8
Top_Mask
  10
0.0366
  20
0.2331
  42
1
  0
VERTEX
  8
Top_Mask
  10
0.0736
  20
0.2331
  42
1
  0
SEQEND
  0
POLYLINE
  8
Top_Mask
  6
CONTINUOUS
  66
1
  70
0
  40
0.037
  41
0.037
  0
VERTEX
  8
Top_Mask
  10
0.0366
  20
0.2331
  42
1
  0
VERTEX
  8
Top_Mask
  10
0.0736
  20
0.2331
  42
1
  0
VERTEX
  8
Top_Mask
  10
0.0366
  20
0.2331
  42
1
  0
SEQEND
  0
POLYLINE
  8
Top_Mask
  6
CONTINUOUS
  66
1
  70
0
  40
0.0
  41
0.0
  0
VERTEX
  8
Top_Mask
  10
0.3406
  20
0.3484
  42
0
  0
VERTEX
  8
Top_Mask
  10
0.3406
  20
0.376
  42
0
  0
VERTEX
  8
Top_Mask
  10
0.3051
  20
0.376
  42
0
  0
VERTEX
  8
Top_Mask
  10
0.3051
  20
0.3484
  42
0
  0
VERTEX
  8
Top_Mask
  10
0.3406
  20
0.3484
  42
0
  0
SEQEND
  0
POLYLINE
  8
Top_Mask
  6
CONTINUOUS
  66
1
  70
0
  40
0.0
  41
0.0
  0
VERTEX
  8
Top_Mask
  10
0.3406
  20
0.2972
  42
0
  0
VERTEX
  8
Top_Mask
  10
0.3406
  20
0.3248
  42
0
  0
VERTEX
  8
Top_Mask
  10
0.3051
  20
0.3248
  42
0
  0
VERTEX
  8
Top_Mask
  10
0.3051
  20
0.2972
  42
0
  0
VERTEX
  8
Top_Mask
  10
0.3406
  20
0.2972
  42
0
  0
SEQEND
  0
POLYLINE
  8
Top_Mask
  6
CONTINUOUS
  66
1
  70
0
  40
0.0
  41
0.0
  0
VERTEX
  8
Top_Mask
  10
0.4764
  20
0.2618
  42
0
  0
VERTEX
  8
Top_Mask
  10
0.4764
  20
0.2185
  42
0
  0
VERTEX
  8
Top_Mask
  10
0.5079
  20
0.2185
  42
0
  0
VERTEX
  8
Top_Mask
  10
0.5079
  20
0.2618
  42
0
  0
VERTEX
  8
Top_Mask
  10
0.4764
  20
0.2618
  42
0
  0
SEQEND
  0
POLYLINE
  8
Top_Mask
  6
CONTINUOUS
  66
1
  70
0
  40
0.0
  41
0.0
  0
VERTEX
  8
Top_Mask
  10
0.4465
  20
0.4087
  42
0
  0
VERTEX
  8
Top_Mask
  10
0.4465
  20
0.3654
  42
0
  0
VERTEX
  8
Top_Mask
  10
0.4858
  20
0.3654
  42
0
  0
VERTEX
  8
Top_Mask
  10
0.4858
  20
0.4087
  42
0
  0
VERTEX
  8
Top_Mask
  10
0.4465
  20
0.4087
  42
0
  0
SEQEND
  0
POLYLINE
  8
Top_Mask
  6
CONTINUOUS
  66
1
  70
0
  40
0.0
  41
0.0
  0
VERTEX
  8
Top_Mask
  10
0.4252
  20
0.2618
  42
0
  0
VERTEX
  8
Top_Mask
  10
0.4252
  20
0.2185
  42
0
  0
VERTEX
  8
Top_Mask
  10
0.4567
  20
0.2185
  42
0
  0
VERTEX
  8
Top_Mask
  10
0.4567
  20
0.2618
  42
0
  0
VERTEX
  8
Top_Mask
  10
0.4252
  20
0.2618
  42
0
  0
SEQEND
  0
POLYLINE
  8
Top_Paste
  6
CONTINUOUS
  66
1
  70
0
  40
0.0
  41
0.0
  0
VERTEX
  8
Top_Paste
  10
0.3406
  20
0.3484
  42
0
  0
VERTEX
  8
Top_Paste
  10
0.3406
  20
0.376
  42
0
  0
VERTEX
  8
Top_Paste
  10
0.3051
  20
0.376
  42
0
  0
VERTEX
  8
Top_Paste
  10
0.3051
  20
0.3484
  42
0
  0
VERTEX
  8
Top_Paste
  10
0.3406
  20
0.3484
  42
0
  0
SEQEND
  0
POLYLINE
  8
Top_Paste
  6
CONTINUOUS
  66
1
  70
0
  40
0.0
  41
0.0
  0
VERTEX
  8
Top_Paste
  10
0.3406
  20
0.2972
  42
0
  0
VERTEX
  8
Top_Paste
  10
0.3406
  20
0.3248
  42
0
  0
VERTEX
  8
Top_Paste
  10
0.3051
  20
0.3248
  42
0
  0
VERTEX
  8
Top_Paste
  10
0.3051
  20
0.2972
  42
0
  0
VERTEX
  8
Top_Paste
  10
0.3406
  20
0.2972
  42
0
  0
SEQEND
  0
POLYLINE
  8
Top_Paste
  6
CONTINUOUS
  66
1
  70
0
  40
0.0
  41
0.0
  0
VERTEX
  8
Top_Paste
  10
0.4764
  20
0.2618
  42
0
  0
VERTEX
  8
Top_Paste
  10
0.4764
  20
0.2185
  42
0
  0
VERTEX
  8
Top_Paste
  10
0.5079
  20
0.2185
  42
0
  0
VERTEX
  8
Top_Paste
  10
0.5079
  20
0.2618
  42
0
  0
VERTEX
  8
Top_Paste
  10
0.4764
  20
0.2618
  42
0
  0
SEQEND
  0
POLYLINE
  8
Top_Paste
  6
CONTINUOUS
  66
1
  70
0
  40
0.0
  41
0.0
  0
VERTEX
  8
Top_Paste
  10
0.4465
  20
0.4087
  42
0
  0
VERTEX
  8
Top_Paste
  10
0.4465
  20
0.3654
  42
0
  0
VERTEX
  8
Top_Paste
  10
0.4858
  20
0.3654
  42
0
  0
VERTEX
  8
Top_Paste
  10
0.4858
  20
0.4087
  42
0
  0
VERTEX
  8
Top_Paste
  10
0.4465
  20
0.4087
  42
0
  0
SEQEND
  0
POLYLINE
  8
Top_Paste
  6
CONTINUOUS
  66
1
  70
0
  40
0.0
  41
0.0
  0
VERTEX
  8
Top_Paste
  10
0.4252
  20
0.2618
  42
0
  0
VERTEX
  8
Top_Paste
  10
0.4252
  20
0.2185
  42
0
  0
VERTEX
  8
Top_Paste
  10
0.4567
  20
0.2185
  42
0
  0
VERTEX
  8
Top_Paste
  10
0.4567
  20
0.2618
  42
0
  0
VERTEX
  8
Top_Paste
  10
0.4252
  20
0.2618
  42
0
  0
SEQEND
  0
POLYLINE
  8
Top
  6
CONTINUOUS
  66
1
  70
0
  40
0.0591
  41
0.0591
  0
VERTEX
  8
Top
  10
0.6201
  20
0.5512
  42
1
  0
VERTEX
  8
Top
  10
0.561
  20
0.5512
  42
1
  0
VERTEX
  8
Top
  10
0.6201
  20
0.5512
  42
1
  0
SEQEND
  0
POLYLINE
  8
Top
  6
CONTINUOUS
  66
1
  70
0
  40
0.0591
  41
0.0591
  0
VERTEX
  8
Top
  10
0.6201
  20
0.1181
  42
1
  0
VERTEX
  8
Top
  10
0.561
  20
0.1181
  42
1
  0
VERTEX
  8
Top
  10
0.6201
  20
0.1181
  42
1
  0
SEQEND
  0
POLYLINE
  8
Top
  6
CONTINUOUS
  66
1
  70
0
  40
0.037
  41
0.037
  0
VERTEX
  8
Top
  10
0.0736
  20
0.4331
  42
1
  0
VERTEX
  8
Top
  10
0.0366
  20
0.4331
  42
1
  0
VERTEX
  8
Top
  10
0.0736
  20
0.4331
  42
1
  0
SEQEND
  0
POLYLINE
  8
Top
  6
CONTINUOUS
  66
1
  70
0
  40
0.037
  41
0.037
  0
VERTEX
  8
Top
  10
0.0736
  20
0.3331
  42
1
  0
VERTEX
  8
Top
  10
0.0366
  20
0.3331
  42
1
  0
VERTEX
  8
Top
  10
0.0736
  20
0.3331
  42
1
  0
SEQEND
  0
POLYLINE
  8
Top
  6
CONTINUOUS
  66
1
  70
0
  40
0.037
  41
0.037
  0
VERTEX
  8
Top
  10
0.0736
  20
0.2331
  42
1
  0
VERTEX
  8
Top
  10
0.0366
  20
0.2331
  42
1
  0
VERTEX
  8
Top
  10
0.0736
  20
0.2331
  42
1
  0
SEQEND
  0
POLYLINE
  8
Top
  6
CONTINUOUS
  66
1
  70
0
  40
0.0
  41
0.0
  0
VERTEX
  8
Top
  10
0.3406
  20
0.3484
  42
0
  0
VERTEX
  8
Top
  10
0.3406
  20
0.376
  42
0
  0
VERTEX
  8
Top
  10
0.3051
  20
0.376
  42
0
  0
VERTEX
  8
Top
  10
0.3051
  20
0.3484
  42
0
  0
VERTEX
  8
Top
  10
0.3406
  20
0.3484
  42
0
  0
SEQEND
  0
POLYLINE
  8
Top
  6
CONTINUOUS
  66
1
  70
0
  40
0.0
  41
0.0
  0
VERTEX
  8
Top
  10
0.3406
  20
0.2972
  42
0
  0
VERTEX
  8
Top
  10
0.3406
  20
0.3248
  42
0
  0
VERTEX
  8
Top
  10
0.3051
  20
0.3248
  42
0
  0
VERTEX
  8
Top
  10
0.3051
  20
0.2972
  42
0
  0
VERTEX
  8
Top
  10
0.3406
  20
0.2972
  42
0
  0
SEQEND
  0
POLYLINE
  8
Top
  6
CONTINUOUS
  66
1
  70
0
  40
0.0
  41
0.0
  0
VERTEX
  8
Top
  10
0.4764
  20
0.2618
  42
0
  0
VERTEX
  8
Top
  10
0.4764
  20
0.2185
  42
0
  0
VERTEX
  8
Top
  10
0.5079
  20
0.2185
  42
0
  0
VERTEX
  8
Top
  10
0.5079
  20
0.2618
  42
0
  0
VERTEX
  8
Top
  10
0.4764
  20
0.2618
  42
0
  0
SEQEND
  0
POLYLINE
  8
Top
  6
CONTINUOUS
  66
1
  70
0
  40
0.0
  41
0.0
  0
VERTEX
  8
Top
  10
0.4465
  20
0.4087
  42
0
  0
VERTEX
  8
Top
  10
0.4465
  20
0.3654
  42
0
  0
VERTEX
  8
Top
  10
0.4858
  20
0.3654
  42
0
  0
VERTEX
  8
Top
  10
0.4858
  20
0.4087
  42
0
  0
VERTEX
  8
Top
  10
0.4465
  20
0.4087
  42
0
  0
SEQEND
  0
POLYLINE
  8
Top
  6
CONTINUOUS
  66
1
  70
0
  40
0.0
  41
0.0
  0
VERTEX
  8
Top
  10
0.4252
  20
0.2618
  42
0
  0
VERTEX
  8
Top
  10
0.4252
  20
0.2185
  42
0
  0
VERTEX
  8
Top
  10
0.4567
  20
0.2185
  42
0
  0
VERTEX
  8
Top
  10
0.4567
  20
0.2618
  42
0
  0
VERTEX
  8
Top
  10
0.4252
  20
0.2618
  42
0
  0
SEQEND
  0
POLYLINE
  8
Top
  6
CONTINUOUS
  66
1
  70
0
  40
0.0118
  41
0.0118
  0
VERTEX
  8
Top
  10
0.3228
  20
0.3622
  42
0
  0
VERTEX
  8
Top
  10
0.0843
  20
0.3622
  42
0
  0
SEQEND
  0
POLYLINE
  8
Top
  6
CONTINUOUS
  66
1
  70
0
  40
0.0059
  41
0.0059
  0
VERTEX
  8
Top
  10
0.3199
  20
0.3622
  42
1
  0
VERTEX
  8
Top
  10
0.3258
  20
0.3622
  42
1
  0
VERTEX
  8
Top
  10
0.3199
  20
0.3622
  42
1
  0
SEQEND
  0
POLYLINE
  8
Top
  6
CONTINUOUS
  66
1
  70
0
  40
0.0059
  41
0.0059
  0
VERTEX
  8
Top
  10
0.0813
  20
0.3622
  42
1
  0
VERTEX
  8
Top
  10
0.0872
  20
0.3622
  42
1
  0
VERTEX
  8
Top
  10
0.0813
  20
0.3622
  42
1
  0
SEQEND
  0
POLYLINE
  8
Top
  6
CONTINUOUS
  66
1
  70
0
  40
0.0118
  41
0.0118
  0
VERTEX
  8
Top
  10
0.0843
  20
0.3622
  42
0
  0
VERTEX
  8
Top
  10
0.0551
  20
0.3331
  42
0
  0
SEQEND
  0
POLYLINE
  8
Top
  6
CONTINUOUS
  66
1
  70
0
  40
0.0059
  41
0.0059
  0
VERTEX
  8
Top
  10
0.0813
  20
0.3622
  42
1
  0
VERTEX
  8
Top
  10
0.0872
  20
0.3622
  42
1
  0
VERTEX
  8
Top
  10
0.0813
  20
0.3622
  42
1
  0
SEQEND
  0
POLYLINE
  8
Top
  6
CONTINUOUS
  66
1
  70
0
  40
0.0059
  41
0.0059
  0
VERTEX
  8
Top
  10
0.0522
  20
0.3331
  42
1
  0
VERTEX
  8
Top
  10
0.0581
  20
0.3331
  42
1
  0
VERTEX
  8
Top
  10
0.0522
  20
0.3331
  42
1
  0
SEQEND
  0
POLYLINE
  8
Top
  6
CONTINUOUS
  66
1
  70
0
  40
0.0079
  41
0.0079
  0
VERTEX
  8
Top
  10
0.3228
  20
0.311
  42
0
  0
VERTEX
  8
Top
  10
0.3701
  20
0.311
  42
0
  0
SEQEND
  0
POLYLINE
  8
Top
  6
CONTINUOUS
  66
1
  70
0
  40
0.0039
  41
0.0039
  0
VERTEX
  8
Top
  10
0.3209
  20
0.311
  42
1
  0
VERTEX
  8
Top
  10
0.3248
  20
0.311
  42
1
  0
VERTEX
  8
Top
  10
0.3209
  20
0.311
  42
1
  0
SEQEND
  0
POLYLINE
  8
Top
  6
CONTINUOUS
  66
1
  70
0
  40
0.0039
  41
0.0039
  0
VERTEX
  8
Top
  10
0.3681
  20
0.311
  42
1
  0
VERTEX
  8
Top
  10
0.372
  20
0.311
  42
1
  0
VERTEX
  8
Top
  10
0.3681
  20
0.311
  42
1
  0
SEQEND
  0
POLYLINE
  8
Top
  6
CONTINUOUS
  66
1
  70
0
  40
0.0079
  41
0.0079
  0
VERTEX
  8
Top
  10
0.3701
  20
0.311
  42
0
  0
VERTEX
  8
Top
  10
0.4409
  20
0.2402
  42
0
  0
SEQEND
  0
POLYLINE
  8
Top
  6
CONTINUOUS
  66
1
  70
0
  40
0.0039
  41
0.0039
  0
VERTEX
  8
Top
  10
0.3681
  20
0.311
  42
1
  0
VERTEX
  8
Top
  10
0.372
  20
0.311
  42
1
  0
VERTEX
  8
Top
  10
0.3681
  20
0.311
  42
1
  0
SEQEND
  0
POLYLINE
  8
Top
  6
CONTINUOUS
  66
1
  70
0
  40
0.0039
  41
0.0039
  0
VERTEX
  8
Top
  10
0.439
  20
0.2402
  42
1
  0
VERTEX
  8
Top
  10
0.4429
  20
0.2402
  42
1
  0
VERTEX
  8
Top
  10
0.439
  20
0.2402
  42
1
  0
SEQEND
  0
POLYLINE
  8
Top
  6
CONTINUOUS
  66
1
  70
0
  40
0.0079
  41
0.0079
  0
VERTEX
  8
Top
  10
0.3228
  20
0.311
  42
0
  0
VERTEX
  8
Top
  10
0.1331
  20
0.311
  42
0
  0
SEQEND
  0
POLYLINE
  8
Top
  6
CONTINUOUS
  66
1
  70
0
  40
0.0039
  41
0.0039
  0
VERTEX
  8
Top
  10
0.3209
  20
0.311
  42
1
  0
VERTEX
  8
Top
  10
0.3248
  20
0.311
  42
1
  0
VERTEX
  8
Top
  10
0.3209
  20
0.311
  42
1
  0
SEQEND
  0
POLYLINE
  8
Top
  6
CONTINUOUS
  66
1
  70
0
  40
0.0039
  41
0.0039
  0
VERTEX
  8
Top
  10
0.1311
  20
0.311
  42
1
  0
VERTEX
  8
Top
  10
0.135
  20
0.311
  42
1
  0
VERTEX
  8
Top
  10
0.1311
  20
0.311
  42
1
  0
SEQEND
  0
POLYLINE
  8
Top
  6
CONTINUOUS
  66
1
  70
0
  40
0.0079
  41
0.0079
  0
VERTEX
  8
Top
  10
0.1331
  20
0.311
  42
0
  0
VERTEX
  8
Top
  10
0.0551
  20
0.2331
  42
0
  0
SEQEND
  0
POLYLINE
  8
Top
  6
CONTINUOUS
  66
1
  70
0
  40
0.0039
  41
0.0039
  0
VERTEX
  8
Top
  10
0.1311
  20
0.311
  42
1
  0
VERTEX
  8
Top
  10
0.135
  20
0.311
  42
1
  0
VERTEX
  8
Top
  10
0.1311
  20
0.311
  42
1
  0
SEQEND
  0
POLYLINE
  8
Top
  6
CONTINUOUS
  66
1
  70
0
  40
0.0039
  41
0.0039
  0
VERTEX
  8
Top
  10
0.0531
  20
0.2331
  42
1
  0
VERTEX
  8
Top
  10
0.0571
  20
0.2331
  42
1
  0
VERTEX
  8
Top
  10
0.0531
  20
0.2331
  42
1
  0
SEQEND
  0
POLYLINE
  8
Top
  6
CONTINUOUS
  66
1
  70
0
  40
0.0118
  41
0.0118
  0
VERTEX
  8
Top
  10
0.4661
  20
0.387
  42
0
  0
VERTEX
  8
Top
  10
0.4661
  20
0.3976
  42
0
  0
SEQEND
  0
POLYLINE
  8
Top
  6
CONTINUOUS
  66
1
  70
0
  40
0.0059
  41
0.0059
  0
VERTEX
  8
Top
  10
0.4632
  20
0.387
  42
1
  0
VERTEX
  8
Top
  10
0.4691
  20
0.387
  42
1
  0
VERTEX
  8
Top
  10
0.4632
  20
0.387
  42
1
  0
SEQEND
  0
POLYLINE
  8
Top
  6
CONTINUOUS
  66
1
  70
0
  40
0.0059
  41
0.0059
  0
VERTEX
  8
Top
  10
0.4632
  20
0.3976
  42
1
  0
VERTEX
  8
Top
  10
0.4691
  20
0.3976
  42
1
  0
VERTEX
  8
Top
  10
0.4632
  20
0.3976
  42
1
  0
SEQEND
  0
POLYLINE
  8
Top
  6
CONTINUOUS
  66
1
  70
0
  40
0.0118
  41
0.0118
  0
VERTEX
  8
Top
  10
0.4661
  20
0.3976
  42
0
  0
VERTEX
  8
Top
  10
0.0906
  20
0.3976
  42
0
  0
SEQEND
  0
POLYLINE
  8
Top
  6
CONTINUOUS
  66
1
  70
0
  40
0.0059
  41
0.0059
  0
VERTEX
  8
Top
  10
0.4632
  20
0.3976
  42
1
  0
VERTEX
  8
Top
  10
0.4691
  20
0.3976
  42
1
  0
VERTEX
  8
Top
  10
0.4632
  20
0.3976
  42
1
  0
SEQEND
  0
POLYLINE
  8
Top
  6
CONTINUOUS
  66
1
  70
0
  40
0.0059
  41
0.0059
  0
VERTEX
  8
Top
  10
0.0876
  20
0.3976
  42
1
  0
VERTEX
  8
Top
  10
0.0935
  20
0.3976
  42
1
  0
VERTEX
  8
Top
  10
0.0876
  20
0.3976
  42
1
  0
SEQEND
  0
POLYLINE
  8
Top
  6
CONTINUOUS
  66
1
  70
0
  40
0.0118
  41
0.0118
  0
VERTEX
  8
Top
  10
0.0906
  20
0.3976
  42
0
  0
VERTEX
  8
Top
  10
0.0551
  20
0.4331
  42
0
  0
SEQEND
  0
POLYLINE
  8
Top
  6
CONTINUOUS
  66
1
  70
0
  40
0.0059
  41
0.0059
  0
VERTEX
  8
Top
  10
0.0876
  20
0.3976
  42
1
  0
VERTEX
  8
Top
  10
0.0935
  20
0.3976
  42
1
  0
VERTEX
  8
Top
  10
0.0876
  20
0.3976
  42
1
  0
SEQEND
  0
POLYLINE
  8
Top
  6
CONTINUOUS
  66
1
  70
0
  40
0.0059
  41
0.0059
  0
VERTEX
  8
Top
  10
0.0522
  20
0.4331
  42
1
  0
VERTEX
  8
Top
  10
0.0581
  20
0.4331
  42
1
  0
VERTEX
  8
Top
  10
0.0522
  20
0.4331
  42
1
  0
SEQEND
  0
POLYLINE
  8
Bottom
  6
CONTINUOUS
  66
1
  70
0
  40
0.0591
  41
0.0591
  0
VERTEX
  8
Bottom
  10
0.6201
  20
0.5512
  42
1
  0
VERTEX
  8
Bottom
  10
0.561
  20
0.5512
  42
1
  0
VERTEX
  8
Bottom
  10
0.6201
  20
0.5512
  42
1
  0
SEQEND
  0
POLYLINE
  8
Bottom
  6
CONTINUOUS
  66
1
  70
0
  40
0.0591
  41
0.0591
  0
VERTEX
  8
Bottom
  10
0.6201
  20
0.1181
  42
1
  0
VERTEX
  8
Bottom
  10
0.561
  20
0.1181
  42
1
  0
VERTEX
  8
Bottom
  10
0.6201
  20
0.1181
  42
1
  0
SEQEND
  0
POLYLINE
  8
Bottom
  6
CONTINUOUS
  66
1
  70
0
  40
0.037
  41
0.037
  0
VERTEX
  8
Bottom
  10
0.0736
  20
0.4331
  42
1
  0
VERTEX
  8
Bottom
  10
0.0366
  20
0.4331
  42
1
  0
VERTEX
  8
Bottom
  10
0.0736
  20
0.4331
  42
1
  0
SEQEND
  0
POLYLINE
  8
Bottom
  6
CONTINUOUS
  66
1
  70
0
  40
0.037
  41
0.037
  0
VERTEX
  8
Bottom
  10
0.0736
  20
0.3331
  42
1
  0
VERTEX
  8
Bottom
  10
0.0366
  20
0.3331
  42
1
  0
VERTEX
  8
Bottom
  10
0.0736
  20
0.3331
  42
1
  0
SEQEND
  0
POLYLINE
  8
Bottom
  6
CONTINUOUS
  66
1
  70
0
  40
0.037
  41
0.037
  0
VERTEX
  8
Bottom
  10
0.0736
  20
0.2331
  42
1
  0
VERTEX
  8
Bottom
  10
0.0366
  20
0.2331
  42
1
  0
VERTEX
  8
Bottom
  10
0.0736
  20
0.2331
  42
1
  0
SEQEND
  0
CIRCLE
  8
Drill_Top
  10
0.5906
  20
0.5512
  40
0.0591
  0
CIRCLE
  8
Drill_Top
  10
0.5906
  20
0.1181
  40
0.0591
  0
CIRCLE
  8
Drill_Top
  10
0.0551
  20
0.4331
  40
0.02
  0
CIRCLE
  8
Drill_Top
  10
0.0551
  20
0.3331
  40
0.02
  0
CIRCLE
  8
Drill_Top
  10
0.0551
  20
0.2331
  40
0.02
  0
CIRCLE
  8
Drill_Bottom
  10
0.5906
  20
0.5512
  40
0.0591
  0
CIRCLE
  8
Drill_Bottom
  10
0.5906
  20
0.1181
  40
0.0591
  0
CIRCLE
  8
Drill_Bottom
  10
0.0551
  20
0.4331
  40
0.02
  0
CIRCLE
  8
Drill_Bottom
  10
0.0551
  20
0.3331
  40
0.02
  0
CIRCLE
  8
Drill_Bottom
  10
0.0551
  20
0.2331
  40
0.02
  0
POLYLINE
  8
Bottom_Mask
  6
CONTINUOUS
  66
1
  70
0
  40
0.063
  41
0.063
  0
VERTEX
  8
Bottom_Mask
  10
0.622
  20
0.5512
  42
1
  0
VERTEX
  8
Bottom_Mask
  10
0.5591
  20
0.5512
  42
1
  0
VERTEX
  8
Bottom_Mask
  10
0.622
  20
0.5512
  42
1
  0
SEQEND
  0
POLYLINE
  8
Bottom_Mask
  6
CONTINUOUS
  66
1
  70
0
  40
0.063
  41
0.063
  0
VERTEX
  8
Bottom_Mask
  10
0.5591
  20
0.5512
  42
1
  0
VERTEX
  8
Bottom_Mask
  10
0.622
  20
0.5512
  42
1
  0
VERTEX
  8
Bottom_Mask
  10
0.5591
  20
0.5512
  42
1
  0
SEQEND
  0
POLYLINE
  8
Bottom_Mask
  6
CONTINUOUS
  66
1
  70
0
  40
0.063
  41
0.063
  0
VERTEX
  8
Bottom_Mask
  10
0.622
  20
0.1181
  42
1
  0
VERTEX
  8
Bottom_Mask
  10
0.5591
  20
0.1181
  42
1
  0
VERTEX
  8
Bottom_Mask
  10
0.622
  20
0.1181
  42
1
  0
SEQEND
  0
POLYLINE
  8
Bottom_Mask
  6
CONTINUOUS
  66
1
  70
0
  40
0.063
  41
0.063
  0
VERTEX
  8
Bottom_Mask
  10
0.5591
  20
0.1181
  42
1
  0
VERTEX
  8
Bottom_Mask
  10
0.622
  20
0.1181
  42
1
  0
VERTEX
  8
Bottom_Mask
  10
0.5591
  20
0.1181
  42
1
  0
SEQEND
  0
POLYLINE
  8
Bottom_Mask
  6
CONTINUOUS
  66
1
  70
0
  40
0.037
  41
0.037
  0
VERTEX
  8
Bottom_Mask
  10
0.0736
  20
0.4331
  42
1
  0
VERTEX
  8
Bottom_Mask
  10
0.0366
  20
0.4331
  42
1
  0
VERTEX
  8
Bottom_Mask
  10
0.0736
  20
0.4331
  42
1
  0
SEQEND
  0
POLYLINE
  8
Bottom_Mask
  6
CONTINUOUS
  66
1
  70
0
  40
0.037
  41
0.037
  0
VERTEX
  8
Bottom_Mask
  10
0.0366
  20
0.4331
  42
1
  0
VERTEX
  8
Bottom_Mask
  10
0.0736
  20
0.4331
  42
1
  0
VERTEX
  8
Bottom_Mask
  10
0.0366
  20
0.4331
  42
1
  0
SEQEND
  0
POLYLINE
  8
Bottom_Mask
  6
CONTINUOUS
  66
1
  70
0
  40
0.037
  41
0.037
  0
VERTEX
  8
Bottom_Mask
  10
0.0736
  20
0.3331
  42
1
  0
VERTEX
  8
Bottom_Mask
  10
0.0366
  20
0.3331
  42
1
  0
VERTEX
  8
Bottom_Mask
  10
0.0736
  20
0.3331
  42
1
  0
SEQEND
  0
POLYLINE
  8
Bottom_Mask
  6
CONTINUOUS
  66
1
  70
0
  40
0.037
  41
0.037
  0
VERTEX
  8
Bottom_Mask
  10
0.0366
  20
0.3331
  42
1
  0
VERTEX
  8
Bottom_Mask
  10
0.0736
  20
0.3331
  42
1
  0
VERTEX
  8
Bottom_Mask
  10
0.0366
  20
0.3331
  42
1
  0
SEQEND
  0
POLYLINE
  8
Bottom_Mask
  6
CONTINUOUS
  66
1
  70
0
  40
0.037
  41
0.037
  0
VERTEX
  8
Bottom_Mask
  10
0.0736
  20
0.2331
  42
1
  0
VERTEX
  8
Bottom_Mask
  10
0.0366
  20
0.2331
  42
1
  0
VERTEX
  8
Bottom_Mask
  10
0.0736
  20
0.2331
  42
1
  0
SEQEND
  0
POLYLINE
  8
Bottom_Mask
  6
CONTINUOUS
  66
1
  70
0
  40
0.037
  41
0.037
  0
VERTEX
  8
Bottom_Mask
  10
0.0366
  20
0.2331
  42
1
  0
VERTEX
  8
Bottom_Mask
  10
0.0736
  20
0.2331
  42
1
  0
VERTEX
  8
Bottom_Mask
  10
0.0366
  20
0.2331
  42
1
  0
SEQEND
  0
POLYLINE
  8
Bottom_Silk
  6
CONTINUOUS
  66
1
  70
0
  40
0.0093
  41
0.0093
  0
VERTEX
  8
Bottom_Silk
  10
0.55
  20
0.4218
  42
0
  0
VERTEX
  8
Bottom_Silk
  10
0.55
  20
0.3759
  42
0
  0
VERTEX
  8
Bottom_Silk
  10
0.5529
  20
0.3673
  42
0
  0
VERTEX
  8
Bottom_Silk
  10
0.5558
  20
0.3645
  42
0
  0
VERTEX
  8
Bottom_Silk
  10
0.5615
  20
0.3616
  42
0
  0
VERTEX
  8
Bottom_Silk
  10
0.5673
  20
0.3616
  42
0
  0
VERTEX
  8
Bottom_Silk
  10
0.573
  20
0.3645
  42
0
  0
VERTEX
  8
Bottom_Silk
  10
0.5758
  20
0.3673
  42
0
  0
VERTEX
  8
Bottom_Silk
  10
0.5788
  20
0.3759
  42
0
  0
VERTEX
  8
Bottom_Silk
  10
0.5788
  20
0.3817
  42
0
  0
SEQEND
  0
POLYLINE
  8
Bottom_Silk
  6
CONTINUOUS
  66
1
  70
0
  40
0.0046
  41
0.0046
  0
VERTEX
  8
Bottom_Silk
  10
0.5477
  20
0.4218
  42
1
  0
VERTEX
  8
Bottom_Silk
  10
0.5524
  20
0.4218
  42
1
  0
VERTEX
  8
Bottom_Silk
  10
0.5477
  20
0.4218
  42
1
  0
SEQEND
  0
POLYLINE
  8
Bottom_Silk
  6
CONTINUOUS
  66
1
  70
0
  40
0.0046
  41
0.0046
  0
VERTEX
  8
Bottom_Silk
  10
0.5764
  20
0.3817
  42
1
  0
VERTEX
  8
Bottom_Silk
  10
0.5811
  20
0.3817
  42
1
  0
VERTEX
  8
Bottom_Silk
  10
0.5764
  20
0.3817
  42
1
  0
SEQEND
  0
POLYLINE
  8
Bottom_Silk
  6
CONTINUOUS
  66
1
  70
0
  40
0.0093
  41
0.0093
  0
VERTEX
  8
Bottom_Silk
  10
0.5315
  20
0.4218
  42
0
  0
VERTEX
  8
Bottom_Silk
  10
0.5315
  20
0.3616
  42
0
  0
SEQEND
  0
POLYLINE
  8
Bottom_Silk
  6
CONTINUOUS
  66
1
  70
0
  40
0.0046
  41
0.0046
  0
VERTEX
  8
Bottom_Silk
  10
0.5292
  20
0.4218
  42
1
  0
VERTEX
  8
Bottom_Silk
  10
0.5338
  20
0.4218
  42
1
  0
VERTEX
  8
Bottom_Silk
  10
0.5292
  20
0.4218
  42
1
  0
SEQEND
  0
POLYLINE
  8
Bottom_Silk
  6
CONTINUOUS
  66
1
  70
0
  40
0.0046
  41
0.0046
  0
VERTEX
  8
Bottom_Silk
  10
0.5292
  20
0.3616
  42
1
  0
VERTEX
  8
Bottom_Silk
  10
0.5338
  20
0.3616
  42
1
  0
VERTEX
  8
Bottom_Silk
  10
0.5292
  20
0.3616
  42
1
  0
SEQEND
  0
POLYLINE
  8
Bottom_Silk
  6
CONTINUOUS
  66
1
  70
0
  40
0.0093
  41
0.0093
  0
VERTEX
  8
Bottom_Silk
  10
0.4913
  20
0.4218
  42
0
  0
VERTEX
  8
Bottom_Silk
  10
0.5315
  20
0.3817
  42
0
  0
SEQEND
  0
POLYLINE
  8
Bottom_Silk
  6
CONTINUOUS
  66
1
  70
0
  40
0.0046
  41
0.0046
  0
VERTEX
  8
Bottom_Silk
  10
0.489
  20
0.4218
  42
1
  0
VERTEX
  8
Bottom_Silk
  10
0.4936
  20
0.4218
  42
1
  0
VERTEX
  8
Bottom_Silk
  10
0.489
  20
0.4218
  42
1
  0
SEQEND
  0
POLYLINE
  8
Bottom_Silk
  6
CONTINUOUS
  66
1
  70
0
  40
0.0046
  41
0.0046
  0
VERTEX
  8
Bottom_Silk
  10
0.5292
  20
0.3817
  42
1
  0
VERTEX
  8
Bottom_Silk
  10
0.5338
  20
0.3817
  42
1
  0
VERTEX
  8
Bottom_Silk
  10
0.5292
  20
0.3817
  42
1
  0
SEQEND
  0
POLYLINE
  8
Bottom_Silk
  6
CONTINUOUS
  66
1
  70
0
  40
0.0093
  41
0.0093
  0
VERTEX
  8
Bottom_Silk
  10
0.5172
  20
0.396
  42
0
  0
VERTEX
  8
Bottom_Silk
  10
0.4913
  20
0.3616
  42
0
  0
SEQEND
  0
POLYLINE
  8
Bottom_Silk
  6
CONTINUOUS
  66
1
  70
0
  40
0.0046
  41
0.0046
  0
VERTEX
  8
Bottom_Silk
  10
0.5149
  20
0.396
  42
1
  0
VERTEX
  8
Bottom_Silk
  10
0.5195
  20
0.396
  42
1
  0
VERTEX
  8
Bottom_Silk
  10
0.5149
  20
0.396
  42
1
  0
SEQEND
  0
POLYLINE
  8
Bottom_Silk
  6
CONTINUOUS
  66
1
  70
0
  40
0.0046
  41
0.0046
  0
VERTEX
  8
Bottom_Silk
  10
0.489
  20
0.3616
  42
1
  0
VERTEX
  8
Bottom_Silk
  10
0.4936
  20
0.3616
  42
1
  0
VERTEX
  8
Bottom_Silk
  10
0.489
  20
0.3616
  42
1
  0
SEQEND
  0
POLYLINE
  8
Bottom_Silk
  6
CONTINUOUS
  66
1
  70
0
  40
0.0062
  41
0.0062
  0
VERTEX
  8
Bottom_Silk
  10
0.4479
  20
0.3999
  42
0
  0
VERTEX
  8
Bottom_Silk
  10
0.4728
  20
0.3999
  42
0
  0
VERTEX
  8
Bottom_Silk
  10
0.4728
  20
0.3597
  42
0
  0
VERTEX
  8
Bottom_Silk
  10
0.4479
  20
0.3597
  42
0
  0
SEQEND
  0
POLYLINE
  8
Bottom_Silk
  6
CONTINUOUS
  66
1
  70
0
  40
0.0031
  41
0.0031
  0
VERTEX
  8
Bottom_Silk
  10
0.4464
  20
0.3999
  42
1
  0
VERTEX
  8
Bottom_Silk
  10
0.4495
  20
0.3999
  42
1
  0
VERTEX
  8
Bottom_Silk
  10
0.4464
  20
0.3999
  42
1
  0
SEQEND
  0
POLYLINE
  8
Bottom_Silk
  6
CONTINUOUS
  66
1
  70
0
  40
0.0031
  41
0.0031
  0
VERTEX
  8
Bottom_Silk
  10
0.4464
  20
0.3597
  42
1
  0
VERTEX
  8
Bottom_Silk
  10
0.4495
  20
0.3597
  42
1
  0
VERTEX
  8
Bottom_Silk
  10
0.4464
  20
0.3597
  42
1
  0
SEQEND
  0
POLYLINE
  8
Bottom_Silk
  6
CONTINUOUS
  66
1
  70
0
  40
0.0062
  41
0.0062
  0
VERTEX
  8
Bottom_Silk
  10
0.4728
  20
0.3807
  42
0
  0
VERTEX
  8
Bottom_Silk
  10
0.4575
  20
0.3807
  42
0
  0
SEQEND
  0
POLYLINE
  8
Bottom_Silk
  6
CONTINUOUS
  66
1
  70
0
  40
0.0031
  41
0.0031
  0
VERTEX
  8
Bottom_Silk
  10
0.4712
  20
0.3807
  42
1
  0
VERTEX
  8
Bottom_Silk
  10
0.4743
  20
0.3807
  42
1
  0
VERTEX
  8
Bottom_Silk
  10
0.4712
  20
0.3807
  42
1
  0
SEQEND
  0
POLYLINE
  8
Bottom_Silk
  6
CONTINUOUS
  66
1
  70
0
  40
0.0031
  41
0.0031
  0
VERTEX
  8
Bottom_Silk
  10
0.4559
  20
0.3807
  42
1
  0
VERTEX
  8
Bottom_Silk
  10
0.459
  20
0.3807
  42
1
  0
VERTEX
  8
Bottom_Silk
  10
0.4559
  20
0.3807
  42
1
  0
SEQEND
  0
POLYLINE
  8
Bottom_Silk
  6
CONTINUOUS
  66
1
  70
0
  40
0.0062
  41
0.0062
  0
VERTEX
  8
Bottom_Silk
  10
0.4356
  20
0.3999
  42
0
  0
VERTEX
  8
Bottom_Silk
  10
0.4356
  20
0.3597
  42
0
  0
SEQEND
  0
POLYLINE
  8
Bottom_Silk
  6
CONTINUOUS
  66
1
  70
0
  40
0.0031
  41
0.0031
  0
VERTEX
  8
Bottom_Silk
  10
0.434
  20
0.3999
  42
1
  0
VERTEX
  8
Bottom_Silk
  10
0.4371
  20
0.3999
  42
1
  0
VERTEX
  8
Bottom_Silk
  10
0.434
  20
0.3999
  42
1
  0
SEQEND
  0
POLYLINE
  8
Bottom_Silk
  6
CONTINUOUS
  66
1
  70
0
  40
0.0031
  41
0.0031
  0
VERTEX
  8
Bottom_Silk
  10
0.434
  20
0.3597
  42
1
  0
VERTEX
  8
Bottom_Silk
  10
0.4371
  20
0.3597
  42
1
  0
VERTEX
  8
Bottom_Silk
  10
0.434
  20
0.3597
  42
1
  0
SEQEND
  0
POLYLINE
  8
Bottom_Silk
  6
CONTINUOUS
  66
1
  70
0
  40
0.0062
  41
0.0062
  0
VERTEX
  8
Bottom_Silk
  10
0.4232
  20
0.375
  42
0
  0
VERTEX
  8
Bottom_Silk
  10
0.4003
  20
0.375
  42
0
  0
VERTEX
  8
Bottom_Silk
  10
0.4003
  20
0.3788
  42
0
  0
VERTEX
  8
Bottom_Silk
  10
0.4022
  20
0.3827
  42
0
  0
VERTEX
  8
Bottom_Silk
  10
0.4041
  20
0.3846
  42
0
  0
VERTEX
  8
Bottom_Silk
  10
0.4079
  20
0.3865
  42
0
  0
VERTEX
  8
Bottom_Silk
  10
0.4137
  20
0.3865
  42
0
  0
VERTEX
  8
Bottom_Silk
  10
0.4175
  20
0.3846
  42
0
  0
VERTEX
  8
Bottom_Silk
  10
0.4213
  20
0.3807
  42
0
  0
VERTEX
  8
Bottom_Silk
  10
0.4232
  20
0.375
  42
0
  0
VERTEX
  8
Bottom_Silk
  10
0.4232
  20
0.3712
  42
0
  0
VERTEX
  8
Bottom_Silk
  10
0.4213
  20
0.3654
  42
0
  0
VERTEX
  8
Bottom_Silk
  10
0.4175
  20
0.3616
  42
0
  0
VERTEX
  8
Bottom_Silk
  10
0.4137
  20
0.3597
  42
0
  0
VERTEX
  8
Bottom_Silk
  10
0.4079
  20
0.3597
  42
0
  0
VERTEX
  8
Bottom_Silk
  10
0.4041
  20
0.3616
  42
0
  0
VERTEX
  8
Bottom_Silk
  10
0.4003
  20
0.3654
  42
0
  0
SEQEND
  0
POLYLINE
  8
Bottom_Silk
  6
CONTINUOUS
  66
1
  70
0
  40
0.0031
  41
0.0031
  0
VERTEX
  8
Bottom_Silk
  10
0.4217
  20
0.375
  42
1
  0
VERTEX
  8
Bottom_Silk
  10
0.4247
  20
0.375
  42
1
  0
VERTEX
  8
Bottom_Silk
  10
0.4217
  20
0.375
  42
1
  0
SEQEND
  0
POLYLINE
  8
Bottom_Silk
  6
CONTINUOUS
  66
1
  70
0
  40
0.0031
  41
0.0031
  0
VERTEX
  8
Bottom_Silk
  10
0.3987
  20
0.3654
  42
1
  0
VERTEX
  8
Bottom_Silk
  10
0.4018
  20
0.3654
  42
1
  0
VERTEX
  8
Bottom_Silk
  10
0.3987
  20
0.3654
  42
1
  0
SEQEND
  0
POLYLINE
  8
Bottom_Silk
  6
CONTINUOUS
  66
1
  70
0
  40
0.0062
  41
0.0062
  0
VERTEX
  8
Bottom_Silk
  10
0.3649
  20
0.3807
  42
0
  0
VERTEX
  8
Bottom_Silk
  10
0.3688
  20
0.3846
  42
0
  0
VERTEX
  8
Bottom_Silk
  10
0.3726
  20
0.3865
  42
0
  0
VERTEX
  8
Bottom_Silk
  10
0.3783
  20
0.3865
  42
0
  0
VERTEX
  8
Bottom_Silk
  10
0.3822
  20
0.3846
  42
0
  0
VERTEX
  8
Bottom_Silk
  10
0.386
  20
0.3807
  42
0
  0
VERTEX
  8
Bottom_Silk
  10
0.3879
  20
0.375
  42
0
  0
VERTEX
  8
Bottom_Silk
  10
0.3879
  20
0.3712
  42
0
  0
VERTEX
  8
Bottom_Silk
  10
0.386
  20
0.3654
  42
0
  0
VERTEX
  8
Bottom_Silk
  10
0.3822
  20
0.3616
  42
0
  0
VERTEX
  8
Bottom_Silk
  10
0.3783
  20
0.3597
  42
0
  0
VERTEX
  8
Bottom_Silk
  10
0.3726
  20
0.3597
  42
0
  0
VERTEX
  8
Bottom_Silk
  10
0.3688
  20
0.3616
  42
0
  0
VERTEX
  8
Bottom_Silk
  10
0.3649
  20
0.3654
  42
0
  0
SEQEND
  0
POLYLINE
  8
Bottom_Silk
  6
CONTINUOUS
  66
1
  70
0
  40
0.0031
  41
0.0031
  0
VERTEX
  8
Bottom_Silk
  10
0.3634
  20
0.3807
  42
1
  0
VERTEX
  8
Bottom_Silk
  10
0.3665
  20
0.3807
  42
1
  0
VERTEX
  8
Bottom_Silk
  10
0.3634
  20
0.3807
  42
1
  0
SEQEND
  0
POLYLINE
  8
Bottom_Silk
  6
CONTINUOUS
  66
1
  70
0
  40
0.0031
  41
0.0031
  0
VERTEX
  8
Bottom_Silk
  10
0.3634
  20
0.3654
  42
1
  0
VERTEX
  8
Bottom_Silk
  10
0.3665
  20
0.3654
  42
1
  0
VERTEX
  8
Bottom_Silk
  10
0.3634
  20
0.3654
  42
1
  0
SEQEND
  0
POLYLINE
  8
Bottom_Silk
  6
CONTINUOUS
  66
1
  70
0
  40
0.0062
  41
0.0062
  0
VERTEX
  8
Bottom_Silk
  10
0.3468
  20
0.3999
  42
0
  0
VERTEX
  8
Bottom_Silk
  10
0.3468
  20
0.3673
  42
0
  0
VERTEX
  8
Bottom_Silk
  10
0.3449
  20
0.3616
  42
0
  0
VERTEX
  8
Bottom_Silk
  10
0.3411
  20
0.3597
  42
0
  0
VERTEX
  8
Bottom_Silk
  10
0.3373
  20
0.3597
  42
0
  0
SEQEND
  0
POLYLINE
  8
Bottom_Silk
  6
CONTINUOUS
  66
1
  70
0
  40
0.0031
  41
0.0031
  0
VERTEX
  8
Bottom_Silk
  10
0.3453
  20
0.3999
  42
1
  0
VERTEX
  8
Bottom_Silk
  10
0.3484
  20
0.3999
  42
1
  0
VERTEX
  8
Bottom_Silk
  10
0.3453
  20
0.3999
  42
1
  0
SEQEND
  0
POLYLINE
  8
Bottom_Silk
  6
CONTINUOUS
  66
1
  70
0
  40
0.0031
  41
0.0031
  0
VERTEX
  8
Bottom_Silk
  10
0.3357
  20
0.3597
  42
1
  0
VERTEX
  8
Bottom_Silk
  10
0.3388
  20
0.3597
  42
1
  0
VERTEX
  8
Bottom_Silk
  10
0.3357
  20
0.3597
  42
1
  0
SEQEND
  0
POLYLINE
  8
Bottom_Silk
  6
CONTINUOUS
  66
1
  70
0
  40
0.0062
  41
0.0062
  0
VERTEX
  8
Bottom_Silk
  10
0.3526
  20
0.3865
  42
0
  0
VERTEX
  8
Bottom_Silk
  10
0.3392
  20
0.3865
  42
0
  0
SEQEND
  0
POLYLINE
  8
Bottom_Silk
  6
CONTINUOUS
  66
1
  70
0
  40
0.0031
  41
0.0031
  0
VERTEX
  8
Bottom_Silk
  10
0.351
  20
0.3865
  42
1
  0
VERTEX
  8
Bottom_Silk
  10
0.3541
  20
0.3865
  42
1
  0
VERTEX
  8
Bottom_Silk
  10
0.351
  20
0.3865
  42
1
  0
SEQEND
  0
POLYLINE
  8
Bottom_Silk
  6
CONTINUOUS
  66
1
  70
0
  40
0.0031
  41
0.0031
  0
VERTEX
  8
Bottom_Silk
  10
0.3376
  20
0.3865
  42
1
  0
VERTEX
  8
Bottom_Silk
  10
0.3407
  20
0.3865
  42
1
  0
VERTEX
  8
Bottom_Silk
  10
0.3376
  20
0.3865
  42
1
  0
SEQEND
  0
POLYLINE
  8
Bottom_Silk
  6
CONTINUOUS
  66
1
  70
0
  40
0.0062
  41
0.0062
  0
VERTEX
  8
Bottom_Silk
  10
0.3249
  20
0.3865
  42
0
  0
VERTEX
  8
Bottom_Silk
  10
0.3249
  20
0.3597
  42
0
  0
SEQEND
  0
POLYLINE
  8
Bottom_Silk
  6
CONTINUOUS
  66
1
  70
0
  40
0.0031
  41
0.0031
  0
VERTEX
  8
Bottom_Silk
  10
0.3234
  20
0.3865
  42
1
  0
VERTEX
  8
Bottom_Silk
  10
0.3265
  20
0.3865
  42
1
  0
VERTEX
  8
Bottom_Silk
  10
0.3234
  20
0.3865
  42
1
  0
SEQEND
  0
POLYLINE
  8
Bottom_Silk
  6
CONTINUOUS
  66
1
  70
0
  40
0.0031
  41
0.0031
  0
VERTEX
  8
Bottom_Silk
  10
0.3234
  20
0.3597
  42
1
  0
VERTEX
  8
Bottom_Silk
  10
0.3265
  20
0.3597
  42
1
  0
VERTEX
  8
Bottom_Silk
  10
0.3234
  20
0.3597
  42
1
  0
SEQEND
  0
POLYLINE
  8
Bottom_Silk
  6
CONTINUOUS
  66
1
  70
0
  40
0.0062
  41
0.0062
  0
VERTEX
  8
Bottom_Silk
  10
0.3249
  20
0.375
  42
0
  0
VERTEX
  8
Bottom_Silk
  10
0.323
  20
0.3807
  42
0
  0
VERTEX
  8
Bottom_Silk
  10
0.3192
  20
0.3846
  42
0
  0
VERTEX
  8
Bottom_Silk
  10
0.3153
  20
0.3865
  42
0
  0
VERTEX
  8
Bottom_Silk
  10
0.3096
  20
0.3865
  42
0
  0
SEQEND
  0
POLYLINE
  8
Bottom_Silk
  6
CONTINUOUS
  66
1
  70
0
  40
0.0031
  41
0.0031
  0
VERTEX
  8
Bottom_Silk
  10
0.3234
  20
0.375
  42
1
  0
VERTEX
  8
Bottom_Silk
  10
0.3265
  20
0.375
  42
1
  0
VERTEX
  8
Bottom_Silk
  10
0.3234
  20
0.375
  42
1
  0
SEQEND
  0
POLYLINE
  8
Bottom_Silk
  6
CONTINUOUS
  66
1
  70
0
  40
0.0031
  41
0.0031
  0
VERTEX
  8
Bottom_Silk
  10
0.308
  20
0.3865
  42
1
  0
VERTEX
  8
Bottom_Silk
  10
0.3111
  20
0.3865
  42
1
  0
VERTEX
  8
Bottom_Silk
  10
0.308
  20
0.3865
  42
1
  0
SEQEND
  0
POLYLINE
  8
Bottom_Silk
  6
CONTINUOUS
  66
1
  70
0
  40
0.0062
  41
0.0062
  0
VERTEX
  8
Bottom_Silk
  10
0.2877
  20
0.3865
  42
0
  0
VERTEX
  8
Bottom_Silk
  10
0.2915
  20
0.3846
  42
0
  0
VERTEX
  8
Bottom_Silk
  10
0.2953
  20
0.3807
  42
0
  0
VERTEX
  8
Bottom_Silk
  10
0.2972
  20
0.375
  42
0
  0
VERTEX
  8
Bottom_Silk
  10
0.2972
  20
0.3712
  42
0
  0
VERTEX
  8
Bottom_Silk
  10
0.2953
  20
0.3654
  42
0
  0
VERTEX
  8
Bottom_Silk
  10
0.2915
  20
0.3616
  42
0
  0
VERTEX
  8
Bottom_Silk
  10
0.2877
  20
0.3597
  42
0
  0
VERTEX
  8
Bottom_Silk
  10
0.2819
  20
0.3597
  42
0
  0
VERTEX
  8
Bottom_Silk
  10
0.2781
  20
0.3616
  42
0
  0
VERTEX
  8
Bottom_Silk
  10
0.2743
  20
0.3654
  42
0
  0
VERTEX
  8
Bottom_Silk
  10
0.2723
  20
0.3712
  42
0
  0
VERTEX
  8
Bottom_Silk
  10
0.2723
  20
0.375
  42
0
  0
VERTEX
  8
Bottom_Silk
  10
0.2743
  20
0.3807
  42
0
  0
VERTEX
  8
Bottom_Silk
  10
0.2781
  20
0.3846
  42
0
  0
VERTEX
  8
Bottom_Silk
  10
0.2819
  20
0.3865
  42
0
  0
VERTEX
  8
Bottom_Silk
  10
0.2877
  20
0.3865
  42
0
  0
SEQEND
  0
POLYLINE
  8
Bottom_Silk
  6
CONTINUOUS
  66
1
  70
0
  40
0.0031
  41
0.0031
  0
VERTEX
  8
Bottom_Silk
  10
0.2861
  20
0.3865
  42
1
  0
VERTEX
  8
Bottom_Silk
  10
0.2892
  20
0.3865
  42
1
  0
VERTEX
  8
Bottom_Silk
  10
0.2861
  20
0.3865
  42
1
  0
SEQEND
  0
POLYLINE
  8
Bottom_Silk
  6
CONTINUOUS
  66
1
  70
0
  40
0.0062
  41
0.0062
  0
VERTEX
  8
Bottom_Silk
  10
0.26
  20
0.3865
  42
0
  0
VERTEX
  8
Bottom_Silk
  10
0.26
  20
0.3597
  42
0
  0
SEQEND
  0
POLYLINE
  8
Bottom_Silk
  6
CONTINUOUS
  66
1
  70
0
  40
0.0031
  41
0.0031
  0
VERTEX
  8
Bottom_Silk
  10
0.2584
  20
0.3865
  42
1
  0
VERTEX
  8
Bottom_Silk
  10
0.2615
  20
0.3865
  42
1
  0
VERTEX
  8
Bottom_Silk
  10
0.2584
  20
0.3865
  42
1
  0
SEQEND
  0
POLYLINE
  8
Bottom_Silk
  6
CONTINUOUS
  66
1
  70
0
  40
0.0031
  41
0.0031
  0
VERTEX
  8
Bottom_Silk
  10
0.2584
  20
0.3597
  42
1
  0
VERTEX
  8
Bottom_Silk
  10
0.2615
  20
0.3597
  42
1
  0
VERTEX
  8
Bottom_Silk
  10
0.2584
  20
0.3597
  42
1
  0
SEQEND
  0
POLYLINE
  8
Bottom_Silk
  6
CONTINUOUS
  66
1
  70
0
  40
0.0062
  41
0.0062
  0
VERTEX
  8
Bottom_Silk
  10
0.26
  20
0.3788
  42
0
  0
VERTEX
  8
Bottom_Silk
  10
0.2542
  20
0.3846
  42
0
  0
VERTEX
  8
Bottom_Silk
  10
0.2504
  20
0.3865
  42
0
  0
VERTEX
  8
Bottom_Silk
  10
0.2447
  20
0.3865
  42
0
  0
VERTEX
  8
Bottom_Silk
  10
0.2408
  20
0.3846
  42
0
  0
VERTEX
  8
Bottom_Silk
  10
0.2389
  20
0.3788
  42
0
  0
VERTEX
  8
Bottom_Silk
  10
0.2389
  20
0.3597
  42
0
  0
SEQEND
  0
POLYLINE
  8
Bottom_Silk
  6
CONTINUOUS
  66
1
  70
0
  40
0.0031
  41
0.0031
  0
VERTEX
  8
Bottom_Silk
  10
0.2584
  20
0.3788
  42
1
  0
VERTEX
  8
Bottom_Silk
  10
0.2615
  20
0.3788
  42
1
  0
VERTEX
  8
Bottom_Silk
  10
0.2584
  20
0.3788
  42
1
  0
SEQEND
  0
POLYLINE
  8
Bottom_Silk
  6
CONTINUOUS
  66
1
  70
0
  40
0.0031
  41
0.0031
  0
VERTEX
  8
Bottom_Silk
  10
0.2374
  20
0.3597
  42
1
  0
VERTEX
  8
Bottom_Silk
  10
0.2405
  20
0.3597
  42
1
  0
VERTEX
  8
Bottom_Silk
  10
0.2374
  20
0.3597
  42
1
  0
SEQEND
  0
POLYLINE
  8
Bottom_Silk
  6
CONTINUOUS
  66
1
  70
0
  40
0.0062
  41
0.0062
  0
VERTEX
  8
Bottom_Silk
  10
0.2266
  20
0.3999
  42
0
  0
VERTEX
  8
Bottom_Silk
  10
0.2247
  20
0.398
  42
0
  0
VERTEX
  8
Bottom_Silk
  10
0.2227
  20
0.3999
  42
0
  0
VERTEX
  8
Bottom_Silk
  10
0.2247
  20
0.4018
  42
0
  0
VERTEX
  8
Bottom_Silk
  10
0.2266
  20
0.3999
  42
0
  0
SEQEND
  0
POLYLINE
  8
Bottom_Silk
  6
CONTINUOUS
  66
1
  70
0
  40
0.0031
  41
0.0031
  0
VERTEX
  8
Bottom_Silk
  10
0.225
  20
0.3999
  42
1
  0
VERTEX
  8
Bottom_Silk
  10
0.2281
  20
0.3999
  42
1
  0
VERTEX
  8
Bottom_Silk
  10
0.225
  20
0.3999
  42
1
  0
SEQEND
  0
POLYLINE
  8
Bottom_Silk
  6
CONTINUOUS
  66
1
  70
0
  40
0.0062
  41
0.0062
  0
VERTEX
  8
Bottom_Silk
  10
0.2247
  20
0.3865
  42
0
  0
VERTEX
  8
Bottom_Silk
  10
0.2247
  20
0.3597
  42
0
  0
SEQEND
  0
POLYLINE
  8
Bottom_Silk
  6
CONTINUOUS
  66
1
  70
0
  40
0.0031
  41
0.0031
  0
VERTEX
  8
Bottom_Silk
  10
0.2231
  20
0.3865
  42
1
  0
VERTEX
  8
Bottom_Silk
  10
0.2262
  20
0.3865
  42
1
  0
VERTEX
  8
Bottom_Silk
  10
0.2231
  20
0.3865
  42
1
  0
SEQEND
  0
POLYLINE
  8
Bottom_Silk
  6
CONTINUOUS
  66
1
  70
0
  40
0.0031
  41
0.0031
  0
VERTEX
  8
Bottom_Silk
  10
0.2231
  20
0.3597
  42
1
  0
VERTEX
  8
Bottom_Silk
  10
0.2262
  20
0.3597
  42
1
  0
VERTEX
  8
Bottom_Silk
  10
0.2231
  20
0.3597
  42
1
  0
SEQEND
  0
POLYLINE
  8
Bottom_Silk
  6
CONTINUOUS
  66
1
  70
0
  40
0.0062
  41
0.0062
  0
VERTEX
  8
Bottom_Silk
  10
0.1874
  20
0.3807
  42
0
  0
VERTEX
  8
Bottom_Silk
  10
0.1912
  20
0.3846
  42
0
  0
VERTEX
  8
Bottom_Silk
  10
0.1951
  20
0.3865
  42
0
  0
VERTEX
  8
Bottom_Silk
  10
0.2008
  20
0.3865
  42
0
  0
VERTEX
  8
Bottom_Silk
  10
0.2046
  20
0.3846
  42
0
  0
VERTEX
  8
Bottom_Silk
  10
0.2084
  20
0.3807
  42
0
  0
VERTEX
  8
Bottom_Silk
  10
0.2104
  20
0.375
  42
0
  0
VERTEX
  8
Bottom_Silk
  10
0.2104
  20
0.3712
  42
0
  0
VERTEX
  8
Bottom_Silk
  10
0.2084
  20
0.3654
  42
0
  0
VERTEX
  8
Bottom_Silk
  10
0.2046
  20
0.3616
  42
0
  0
VERTEX
  8
Bottom_Silk
  10
0.2008
  20
0.3597
  42
0
  0
VERTEX
  8
Bottom_Silk
  10
0.1951
  20
0.3597
  42
0
  0
VERTEX
  8
Bottom_Silk
  10
0.1912
  20
0.3616
  42
0
  0
VERTEX
  8
Bottom_Silk
  10
0.1874
  20
0.3654
  42
0
  0
SEQEND
  0
POLYLINE
  8
Bottom_Silk
  6
CONTINUOUS
  66
1
  70
0
  40
0.0031
  41
0.0031
  0
VERTEX
  8
Bottom_Silk
  10
0.1858
  20
0.3807
  42
1
  0
VERTEX
  8
Bottom_Silk
  10
0.1889
  20
0.3807
  42
1
  0
VERTEX
  8
Bottom_Silk
  10
0.1858
  20
0.3807
  42
1
  0
SEQEND
  0
POLYLINE
  8
Bottom_Silk
  6
CONTINUOUS
  66
1
  70
0
  40
0.0031
  41
0.0031
  0
VERTEX
  8
Bottom_Silk
  10
0.1858
  20
0.3654
  42
1
  0
VERTEX
  8
Bottom_Silk
  10
0.1889
  20
0.3654
  42
1
  0
VERTEX
  8
Bottom_Silk
  10
0.1858
  20
0.3654
  42
1
  0
SEQEND
  0
POLYLINE
  8
Bottom_Silk
  6
CONTINUOUS
  66
1
  70
0
  40
0.0062
  41
0.0062
  0
VERTEX
  8
Bottom_Silk
  10
0.154
  20
0.3807
  42
0
  0
VERTEX
  8
Bottom_Silk
  10
0.1559
  20
0.3846
  42
0
  0
VERTEX
  8
Bottom_Silk
  10
0.1616
  20
0.3865
  42
0
  0
VERTEX
  8
Bottom_Silk
  10
0.1674
  20
0.3865
  42
0
  0
VERTEX
  8
Bottom_Silk
  10
0.1731
  20
0.3846
  42
0
  0
VERTEX
  8
Bottom_Silk
  10
0.175
  20
0.3807
  42
0
  0
VERTEX
  8
Bottom_Silk
  10
0.1731
  20
0.3769
  42
0
  0
VERTEX
  8
Bottom_Silk
  10
0.1693
  20
0.375
  42
0
  0
VERTEX
  8
Bottom_Silk
  10
0.1597
  20
0.3731
  42
0
  0
VERTEX
  8
Bottom_Silk
  10
0.1559
  20
0.3712
  42
0
  0
VERTEX
  8
Bottom_Silk
  10
0.154
  20
0.3673
  42
0
  0
VERTEX
  8
Bottom_Silk
  10
0.154
  20
0.3654
  42
0
  0
VERTEX
  8
Bottom_Silk
  10
0.1559
  20
0.3616
  42
0
  0
VERTEX
  8
Bottom_Silk
  10
0.1616
  20
0.3597
  42
0
  0
VERTEX
  8
Bottom_Silk
  10
0.1674
  20
0.3597
  42
0
  0
VERTEX
  8
Bottom_Silk
  10
0.1731
  20
0.3616
  42
0
  0
VERTEX
  8
Bottom_Silk
  10
0.175
  20
0.3654
  42
0
  0
SEQEND
  0
POLYLINE
  8
Bottom_Silk
  6
CONTINUOUS
  66
1
  70
0
  40
0.0031
  41
0.0031
  0
VERTEX
  8
Bottom_Silk
  10
0.1524
  20
0.3807
  42
1
  0
VERTEX
  8
Bottom_Silk
  10
0.1555
  20
0.3807
  42
1
  0
VERTEX
  8
Bottom_Silk
  10
0.1524
  20
0.3807
  42
1
  0
SEQEND
  0
POLYLINE
  8
Bottom_Silk
  6
CONTINUOUS
  66
1
  70
0
  40
0.0031
  41
0.0031
  0
VERTEX
  8
Bottom_Silk
  10
0.1735
  20
0.3654
  42
1
  0
VERTEX
  8
Bottom_Silk
  10
0.1766
  20
0.3654
  42
1
  0
VERTEX
  8
Bottom_Silk
  10
0.1735
  20
0.3654
  42
1
  0
SEQEND
  0
POLYLINE
  8
Bottom_Silk
  6
CONTINUOUS
  66
1
  70
0
  40
0.0062
  41
0.0062
  0
VERTEX
  8
Bottom_Silk
  10
0.5791
  20
0.3195
  42
0
  0
VERTEX
  8
Bottom_Silk
  10
0.5714
  20
0.2927
  42
0
  0
VERTEX
  8
Bottom_Silk
  10
0.5638
  20
0.3195
  42
0
  0
VERTEX
  8
Bottom_Silk
  10
0.5561
  20
0.2927
  42
0
  0
VERTEX
  8
Bottom_Silk
  10
0.5485
  20
0.3195
  42
0
  0
SEQEND
  0
POLYLINE
  8
Bottom_Silk
  6
CONTINUOUS
  66
1
  70
0
  40
0.0031
  41
0.0031
  0
VERTEX
  8
Bottom_Silk
  10
0.5775
  20
0.3195
  42
1
  0
VERTEX
  8
Bottom_Silk
  10
0.5806
  20
0.3195
  42
1
  0
VERTEX
  8
Bottom_Silk
  10
0.5775
  20
0.3195
  42
1
  0
SEQEND
  0
POLYLINE
  8
Bottom_Silk
  6
CONTINUOUS
  66
1
  70
0
  40
0.0031
  41
0.0031
  0
VERTEX
  8
Bottom_Silk
  10
0.5469
  20
0.3195
  42
1
  0
VERTEX
  8
Bottom_Silk
  10
0.55
  20
0.3195
  42
1
  0
VERTEX
  8
Bottom_Silk
  10
0.5469
  20
0.3195
  42
1
  0
SEQEND
  0
POLYLINE
  8
Bottom_Silk
  6
CONTINUOUS
  66
1
  70
0
  40
0.0062
  41
0.0062
  0
VERTEX
  8
Bottom_Silk
  10
0.5361
  20
0.3195
  42
0
  0
VERTEX
  8
Bottom_Silk
  10
0.5285
  20
0.2927
  42
0
  0
VERTEX
  8
Bottom_Silk
  10
0.5208
  20
0.3195
  42
0
  0
VERTEX
  8
Bottom_Silk
  10
0.5132
  20
0.2927
  42
0
  0
VERTEX
  8
Bottom_Silk
  10
0.5055
  20
0.3195
  42
0
  0
SEQEND
  0
POLYLINE
  8
Bottom_Silk
  6
CONTINUOUS
  66
1
  70
0
  40
0.0031
  41
0.0031
  0
VERTEX
  8
Bottom_Silk
  10
0.5346
  20
0.3195
  42
1
  0
VERTEX
  8
Bottom_Silk
  10
0.5377
  20
0.3195
  42
1
  0
VERTEX
  8
Bottom_Silk
  10
0.5346
  20
0.3195
  42
1
  0
SEQEND
  0
POLYLINE
  8
Bottom_Silk
  6
CONTINUOUS
  66
1
  70
0
  40
0.0031
  41
0.0031
  0
VERTEX
  8
Bottom_Silk
  10
0.504
  20
0.3195
  42
1
  0
VERTEX
  8
Bottom_Silk
  10
0.5071
  20
0.3195
  42
1
  0
VERTEX
  8
Bottom_Silk
  10
0.504
  20
0.3195
  42
1
  0
SEQEND
  0
POLYLINE
  8
Bottom_Silk
  6
CONTINUOUS
  66
1
  70
0
  40
0.0062
  41
0.0062
  0
VERTEX
  8
Bottom_Silk
  10
0.4932
  20
0.3195
  42
0
  0
VERTEX
  8
Bottom_Silk
  10
0.4855
  20
0.2927
  42
0
  0
VERTEX
  8
Bottom_Silk
  10
0.4779
  20
0.3195
  42
0
  0
VERTEX
  8
Bottom_Silk
  10
0.4702
  20
0.2927
  42
0
  0
VERTEX
  8
Bottom_Silk
  10
0.4626
  20
0.3195
  42
0
  0
SEQEND
  0
POLYLINE
  8
Bottom_Silk
  6
CONTINUOUS
  66
1
  70
0
  40
0.0031
  41
0.0031
  0
VERTEX
  8
Bottom_Silk
  10
0.4916
  20
0.3195
  42
1
  0
VERTEX
  8
Bottom_Silk
  10
0.4947
  20
0.3195
  42
1
  0
VERTEX
  8
Bottom_Silk
  10
0.4916
  20
0.3195
  42
1
  0
SEQEND
  0
POLYLINE
  8
Bottom_Silk
  6
CONTINUOUS
  66
1
  70
0
  40
0.0031
  41
0.0031
  0
VERTEX
  8
Bottom_Silk
  10
0.461
  20
0.3195
  42
1
  0
VERTEX
  8
Bottom_Silk
  10
0.4641
  20
0.3195
  42
1
  0
VERTEX
  8
Bottom_Silk
  10
0.461
  20
0.3195
  42
1
  0
SEQEND
  0
POLYLINE
  8
Bottom_Silk
  6
CONTINUOUS
  66
1
  70
0
  40
0.0062
  41
0.0062
  0
VERTEX
  8
Bottom_Silk
  10
0.4483
  20
0.2966
  42
0
  0
VERTEX
  8
Bottom_Silk
  10
0.4502
  20
0.2946
  42
0
  0
VERTEX
  8
Bottom_Silk
  10
0.4483
  20
0.2927
  42
0
  0
VERTEX
  8
Bottom_Silk
  10
0.4464
  20
0.2946
  42
0
  0
VERTEX
  8
Bottom_Silk
  10
0.4483
  20
0.2966
  42
0
  0
SEQEND
  0
POLYLINE
  8
Bottom_Silk
  6
CONTINUOUS
  66
1
  70
0
  40
0.0031
  41
0.0031
  0
VERTEX
  8
Bottom_Silk
  10
0.4468
  20
0.2966
  42
1
  0
VERTEX
  8
Bottom_Silk
  10
0.4499
  20
0.2966
  42
1
  0
VERTEX
  8
Bottom_Silk
  10
0.4468
  20
0.2966
  42
1
  0
SEQEND
  0
POLYLINE
  8
Bottom_Silk
  6
CONTINUOUS
  66
1
  70
0
  40
0.0062
  41
0.0062
  0
VERTEX
  8
Bottom_Silk
  10
0.4264
  20
0.333
  42
0
  0
VERTEX
  8
Bottom_Silk
  10
0.4244
  20
0.3311
  42
0
  0
VERTEX
  8
Bottom_Silk
  10
0.4225
  20
0.333
  42
0
  0
VERTEX
  8
Bottom_Silk
  10
0.4244
  20
0.3349
  42
0
  0
VERTEX
  8
Bottom_Silk
  10
0.4264
  20
0.333
  42
0
  0
SEQEND
  0
POLYLINE
  8
Bottom_Silk
  6
CONTINUOUS
  66
1
  70
0
  40
0.0031
  41
0.0031
  0
VERTEX
  8
Bottom_Silk
  10
0.4248
  20
0.333
  42
1
  0
VERTEX
  8
Bottom_Silk
  10
0.4279
  20
0.333
  42
1
  0
VERTEX
  8
Bottom_Silk
  10
0.4248
  20
0.333
  42
1
  0
SEQEND
  0
POLYLINE
  8
Bottom_Silk
  6
CONTINUOUS
  66
1
  70
0
  40
0.0062
  41
0.0062
  0
VERTEX
  8
Bottom_Silk
  10
0.4244
  20
0.3196
  42
0
  0
VERTEX
  8
Bottom_Silk
  10
0.4244
  20
0.287
  42
0
  0
VERTEX
  8
Bottom_Silk
  10
0.4264
  20
0.2813
  42
0
  0
VERTEX
  8
Bottom_Silk
  10
0.4302
  20
0.2794
  42
0
  0
VERTEX
  8
Bottom_Silk
  10
0.434
  20
0.2794
  42
0
  0
SEQEND
  0
POLYLINE
  8
Bottom_Silk
  6
CONTINUOUS
  66
1
  70
0
  40
0.0031
  41
0.0031
  0
VERTEX
  8
Bottom_Silk
  10
0.4229
  20
0.3196
  42
1
  0
VERTEX
  8
Bottom_Silk
  10
0.426
  20
0.3196
  42
1
  0
VERTEX
  8
Bottom_Silk
  10
0.4229
  20
0.3196
  42
1
  0
SEQEND
  0
POLYLINE
  8
Bottom_Silk
  6
CONTINUOUS
  66
1
  70
0
  40
0.0031
  41
0.0031
  0
VERTEX
  8
Bottom_Silk
  10
0.4325
  20
0.2794
  42
1
  0
VERTEX
  8
Bottom_Silk
  10
0.4356
  20
0.2794
  42
1
  0
VERTEX
  8
Bottom_Silk
  10
0.4325
  20
0.2794
  42
1
  0
SEQEND
  0
POLYLINE
  8
Bottom_Silk
  6
CONTINUOUS
  66
1
  70
0
  40
0.0062
  41
0.0062
  0
VERTEX
  8
Bottom_Silk
  10
0.4102
  20
0.3329
  42
0
  0
VERTEX
  8
Bottom_Silk
  10
0.4102
  20
0.2927
  42
0
  0
SEQEND
  0
POLYLINE
  8
Bottom_Silk
  6
CONTINUOUS
  66
1
  70
0
  40
0.0031
  41
0.0031
  0
VERTEX
  8
Bottom_Silk
  10
0.4086
  20
0.3329
  42
1
  0
VERTEX
  8
Bottom_Silk
  10
0.4117
  20
0.3329
  42
1
  0
VERTEX
  8
Bottom_Silk
  10
0.4086
  20
0.3329
  42
1
  0
SEQEND
  0
POLYLINE
  8
Bottom_Silk
  6
CONTINUOUS
  66
1
  70
0
  40
0.0031
  41
0.0031
  0
VERTEX
  8
Bottom_Silk
  10
0.4086
  20
0.2927
  42
1
  0
VERTEX
  8
Bottom_Silk
  10
0.4117
  20
0.2927
  42
1
  0
VERTEX
  8
Bottom_Silk
  10
0.4086
  20
0.2927
  42
1
  0
SEQEND
  0
POLYLINE
  8
Bottom_Silk
  6
CONTINUOUS
  66
1
  70
0
  40
0.0062
  41
0.0062
  0
VERTEX
  8
Bottom_Silk
  10
0.391
  20
0.3195
  42
0
  0
VERTEX
  8
Bottom_Silk
  10
0.4102
  20
0.3004
  42
0
  0
SEQEND
  0
POLYLINE
  8
Bottom_Silk
  6
CONTINUOUS
  66
1
  70
0
  40
0.0031
  41
0.0031
  0
VERTEX
  8
Bottom_Silk
  10
0.3895
  20
0.3195
  42
1
  0
VERTEX
  8
Bottom_Silk
  10
0.3926
  20
0.3195
  42
1
  0
VERTEX
  8
Bottom_Silk
  10
0.3895
  20
0.3195
  42
1
  0
SEQEND
  0
POLYLINE
  8
Bottom_Silk
  6
CONTINUOUS
  66
1
  70
0
  40
0.0031
  41
0.0031
  0
VERTEX
  8
Bottom_Silk
  10
0.4086
  20
0.3004
  42
1
  0
VERTEX
  8
Bottom_Silk
  10
0.4117
  20
0.3004
  42
1
  0
VERTEX
  8
Bottom_Silk
  10
0.4086
  20
0.3004
  42
1
  0
SEQEND
  0
POLYLINE
  8
Bottom_Silk
  6
CONTINUOUS
  66
1
  70
0
  40
0.0062
  41
0.0062
  0
VERTEX
  8
Bottom_Silk
  10
0.4025
  20
0.308
  42
0
  0
VERTEX
  8
Bottom_Silk
  10
0.3891
  20
0.2927
  42
0
  0
SEQEND
  0
POLYLINE
  8
Bottom_Silk
  6
CONTINUOUS
  66
1
  70
0
  40
0.0031
  41
0.0031
  0
VERTEX
  8
Bottom_Silk
  10
0.401
  20
0.308
  42
1
  0
VERTEX
  8
Bottom_Silk
  10
0.4041
  20
0.308
  42
1
  0
VERTEX
  8
Bottom_Silk
  10
0.401
  20
0.308
  42
1
  0
SEQEND
  0
POLYLINE
  8
Bottom_Silk
  6
CONTINUOUS
  66
1
  70
0
  40
0.0031
  41
0.0031
  0
VERTEX
  8
Bottom_Silk
  10
0.3876
  20
0.2927
  42
1
  0
VERTEX
  8
Bottom_Silk
  10
0.3907
  20
0.2927
  42
1
  0
VERTEX
  8
Bottom_Silk
  10
0.3876
  20
0.2927
  42
1
  0
SEQEND
  0
POLYLINE
  8
Bottom_Silk
  6
CONTINUOUS
  66
1
  70
0
  40
0.0062
  41
0.0062
  0
VERTEX
  8
Bottom_Silk
  10
0.3768
  20
0.308
  42
0
  0
VERTEX
  8
Bottom_Silk
  10
0.3538
  20
0.308
  42
0
  0
VERTEX
  8
Bottom_Silk
  10
0.3538
  20
0.3119
  42
0
  0
VERTEX
  8
Bottom_Silk
  10
0.3557
  20
0.3157
  42
0
  0
VERTEX
  8
Bottom_Silk
  10
0.3576
  20
0.3176
  42
0
  0
VERTEX
  8
Bottom_Silk
  10
0.3615
  20
0.3195
  42
0
  0
VERTEX
  8
Bottom_Silk
  10
0.3672
  20
0.3195
  42
0
  0
VERTEX
  8
Bottom_Silk
  10
0.371
  20
0.3176
  42
0
  0
VERTEX
  8
Bottom_Silk
  10
0.3749
  20
0.3138
  42
0
  0
VERTEX
  8
Bottom_Silk
  10
0.3768
  20
0.308
  42
0
  0
VERTEX
  8
Bottom_Silk
  10
0.3768
  20
0.3042
  42
0
  0
VERTEX
  8
Bottom_Silk
  10
0.3749
  20
0.2985
  42
0
  0
VERTEX
  8
Bottom_Silk
  10
0.371
  20
0.2947
  42
0
  0
VERTEX
  8
Bottom_Silk
  10
0.3672
  20
0.2927
  42
0
  0
VERTEX
  8
Bottom_Silk
  10
0.3615
  20
0.2927
  42
0
  0
VERTEX
  8
Bottom_Silk
  10
0.3576
  20
0.2947
  42
0
  0
VERTEX
  8
Bottom_Silk
  10
0.3538
  20
0.2985
  42
0
  0
SEQEND
  0
POLYLINE
  8
Bottom_Silk
  6
CONTINUOUS
  66
1
  70
0
  40
0.0031
  41
0.0031
  0
VERTEX
  8
Bottom_Silk
  10
0.3752
  20
0.308
  42
1
  0
VERTEX
  8
Bottom_Silk
  10
0.3783
  20
0.308
  42
1
  0
VERTEX
  8
Bottom_Silk
  10
0.3752
  20
0.308
  42
1
  0
SEQEND
  0
POLYLINE
  8
Bottom_Silk
  6
CONTINUOUS
  66
1
  70
0
  40
0.0031
  41
0.0031
  0
VERTEX
  8
Bottom_Silk
  10
0.3523
  20
0.2985
  42
1
  0
VERTEX
  8
Bottom_Silk
  10
0.3554
  20
0.2985
  42
1
  0
VERTEX
  8
Bottom_Silk
  10
0.3523
  20
0.2985
  42
1
  0
SEQEND
  0
POLYLINE
  8
Bottom_Silk
  6
CONTINUOUS
  66
1
  70
0
  40
0.0062
  41
0.0062
  0
VERTEX
  8
Bottom_Silk
  10
0.3415
  20
0.3329
  42
0
  0
VERTEX
  8
Bottom_Silk
  10
0.3415
  20
0.2927
  42
0
  0
SEQEND
  0
POLYLINE
  8
Bottom_Silk
  6
CONTINUOUS
  66
1
  70
0
  40
0.0031
  41
0.0031
  0
VERTEX
  8
Bottom_Silk
  10
0.3399
  20
0.3329
  42
1
  0
VERTEX
  8
Bottom_Silk
  10
0.343
  20
0.3329
  42
1
  0
VERTEX
  8
Bottom_Silk
  10
0.3399
  20
0.3329
  42
1
  0
SEQEND
  0
POLYLINE
  8
Bottom_Silk
  6
CONTINUOUS
  66
1
  70
0
  40
0.0031
  41
0.0031
  0
VERTEX
  8
Bottom_Silk
  10
0.3399
  20
0.2927
  42
1
  0
VERTEX
  8
Bottom_Silk
  10
0.343
  20
0.2927
  42
1
  0
VERTEX
  8
Bottom_Silk
  10
0.3399
  20
0.2927
  42
1
  0
SEQEND
  0
POLYLINE
  8
Bottom_Silk
  6
CONTINUOUS
  66
1
  70
0
  40
0.0062
  41
0.0062
  0
VERTEX
  8
Bottom_Silk
  10
0.3291
  20
0.308
  42
0
  0
VERTEX
  8
Bottom_Silk
  10
0.3062
  20
0.308
  42
0
  0
VERTEX
  8
Bottom_Silk
  10
0.3062
  20
0.3119
  42
0
  0
VERTEX
  8
Bottom_Silk
  10
0.3081
  20
0.3157
  42
0
  0
VERTEX
  8
Bottom_Silk
  10
0.31
  20
0.3176
  42
0
  0
VERTEX
  8
Bottom_Silk
  10
0.3138
  20
0.3195
  42
0
  0
VERTEX
  8
Bottom_Silk
  10
0.3196
  20
0.3195
  42
0
  0
VERTEX
  8
Bottom_Silk
  10
0.3234
  20
0.3176
  42
0
  0
VERTEX
  8
Bottom_Silk
  10
0.3272
  20
0.3138
  42
0
  0
VERTEX
  8
Bottom_Silk
  10
0.3291
  20
0.308
  42
0
  0
VERTEX
  8
Bottom_Silk
  10
0.3291
  20
0.3042
  42
0
  0
VERTEX
  8
Bottom_Silk
  10
0.3272
  20
0.2985
  42
0
  0
VERTEX
  8
Bottom_Silk
  10
0.3234
  20
0.2947
  42
0
  0
VERTEX
  8
Bottom_Silk
  10
0.3196
  20
0.2927
  42
0
  0
VERTEX
  8
Bottom_Silk
  10
0.3138
  20
0.2927
  42
0
  0
VERTEX
  8
Bottom_Silk
  10
0.31
  20
0.2947
  42
0
  0
VERTEX
  8
Bottom_Silk
  10
0.3062
  20
0.2985
  42
0
  0
SEQEND
  0
POLYLINE
  8
Bottom_Silk
  6
CONTINUOUS
  66
1
  70
0
  40
0.0031
  41
0.0031
  0
VERTEX
  8
Bottom_Silk
  10
0.3276
  20
0.308
  42
1
  0
VERTEX
  8
Bottom_Silk
  10
0.3307
  20
0.308
  42
1
  0
VERTEX
  8
Bottom_Silk
  10
0.3276
  20
0.308
  42
1
  0
SEQEND
  0
POLYLINE
  8
Bottom_Silk
  6
CONTINUOUS
  66
1
  70
0
  40
0.0031
  41
0.0031
  0
VERTEX
  8
Bottom_Silk
  10
0.3046
  20
0.2985
  42
1
  0
VERTEX
  8
Bottom_Silk
  10
0.3077
  20
0.2985
  42
1
  0
VERTEX
  8
Bottom_Silk
  10
0.3046
  20
0.2985
  42
1
  0
SEQEND
  0
POLYLINE
  8
Bottom_Silk
  6
CONTINUOUS
  66
1
  70
0
  40
0.0062
  41
0.0062
  0
VERTEX
  8
Bottom_Silk
  10
0.2708
  20
0.3138
  42
0
  0
VERTEX
  8
Bottom_Silk
  10
0.2747
  20
0.3176
  42
0
  0
VERTEX
  8
Bottom_Silk
  10
0.2785
  20
0.3195
  42
0
  0
VERTEX
  8
Bottom_Silk
  10
0.2842
  20
0.3195
  42
0
  0
VERTEX
  8
Bottom_Silk
  10
0.2881
  20
0.3176
  42
0
  0
VERTEX
  8
Bottom_Silk
  10
0.2919
  20
0.3138
  42
0
  0
VERTEX
  8
Bottom_Silk
  10
0.2938
  20
0.308
  42
0
  0
VERTEX
  8
Bottom_Silk
  10
0.2938
  20
0.3042
  42
0
  0
VERTEX
  8
Bottom_Silk
  10
0.2919
  20
0.2985
  42
0
  0
VERTEX
  8
Bottom_Silk
  10
0.2881
  20
0.2947
  42
0
  0
VERTEX
  8
Bottom_Silk
  10
0.2842
  20
0.2927
  42
0
  0
VERTEX
  8
Bottom_Silk
  10
0.2785
  20
0.2927
  42
0
  0
VERTEX
  8
Bottom_Silk
  10
0.2747
  20
0.2947
  42
0
  0
VERTEX
  8
Bottom_Silk
  10
0.2708
  20
0.2985
  42
0
  0
SEQEND
  0
POLYLINE
  8
Bottom_Silk
  6
CONTINUOUS
  66
1
  70
0
  40
0.0031
  41
0.0031
  0
VERTEX
  8
Bottom_Silk
  10
0.2693
  20
0.3138
  42
1
  0
VERTEX
  8
Bottom_Silk
  10
0.2724
  20
0.3138
  42
1
  0
VERTEX
  8
Bottom_Silk
  10
0.2693
  20
0.3138
  42
1
  0
SEQEND
  0
POLYLINE
  8
Bottom_Silk
  6
CONTINUOUS
  66
1
  70
0
  40
0.0031
  41
0.0031
  0
VERTEX
  8
Bottom_Silk
  10
0.2693
  20
0.2985
  42
1
  0
VERTEX
  8
Bottom_Silk
  10
0.2724
  20
0.2985
  42
1
  0
VERTEX
  8
Bottom_Silk
  10
0.2693
  20
0.2985
  42
1
  0
SEQEND
  0
POLYLINE
  8
Bottom_Silk
  6
CONTINUOUS
  66
1
  70
0
  40
0.0062
  41
0.0062
  0
VERTEX
  8
Bottom_Silk
  10
0.2566
  20
0.2966
  42
0
  0
VERTEX
  8
Bottom_Silk
  10
0.2585
  20
0.2946
  42
0
  0
VERTEX
  8
Bottom_Silk
  10
0.2566
  20
0.2927
  42
0
  0
VERTEX
  8
Bottom_Silk
  10
0.2546
  20
0.2946
  42
0
  0
VERTEX
  8
Bottom_Silk
  10
0.2566
  20
0.2966
  42
0
  0
SEQEND
  0
POLYLINE
  8
Bottom_Silk
  6
CONTINUOUS
  66
1
  70
0
  40
0.0031
  41
0.0031
  0
VERTEX
  8
Bottom_Silk
  10
0.255
  20
0.2966
  42
1
  0
VERTEX
  8
Bottom_Silk
  10
0.2581
  20
0.2966
  42
1
  0
VERTEX
  8
Bottom_Silk
  10
0.255
  20
0.2966
  42
1
  0
SEQEND
  0
POLYLINE
  8
Bottom_Silk
  6
CONTINUOUS
  66
1
  70
0
  40
0.0062
  41
0.0062
  0
VERTEX
  8
Bottom_Silk
  10
0.2193
  20
0.3138
  42
0
  0
VERTEX
  8
Bottom_Silk
  10
0.2231
  20
0.3176
  42
0
  0
VERTEX
  8
Bottom_Silk
  10
0.227
  20
0.3195
  42
0
  0
VERTEX
  8
Bottom_Silk
  10
0.2327
  20
0.3195
  42
0
  0
VERTEX
  8
Bottom_Silk
  10
0.2365
  20
0.3176
  42
0
  0
VERTEX
  8
Bottom_Silk
  10
0.2403
  20
0.3138
  42
0
  0
VERTEX
  8
Bottom_Silk
  10
0.2423
  20
0.308
  42
0
  0
VERTEX
  8
Bottom_Silk
  10
0.2423
  20
0.3042
  42
0
  0
VERTEX
  8
Bottom_Silk
  10
0.2403
  20
0.2985
  42
0
  0
VERTEX
  8
Bottom_Silk
  10
0.2365
  20
0.2947
  42
0
  0
VERTEX
  8
Bottom_Silk
  10
0.2327
  20
0.2927
  42
0
  0
VERTEX
  8
Bottom_Silk
  10
0.227
  20
0.2927
  42
0
  0
VERTEX
  8
Bottom_Silk
  10
0.2231
  20
0.2947
  42
0
  0
VERTEX
  8
Bottom_Silk
  10
0.2193
  20
0.2985
  42
0
  0
SEQEND
  0
POLYLINE
  8
Bottom_Silk
  6
CONTINUOUS
  66
1
  70
0
  40
0.0031
  41
0.0031
  0
VERTEX
  8
Bottom_Silk
  10
0.2177
  20
0.3138
  42
1
  0
VERTEX
  8
Bottom_Silk
  10
0.2208
  20
0.3138
  42
1
  0
VERTEX
  8
Bottom_Silk
  10
0.2177
  20
0.3138
  42
1
  0
SEQEND
  0
POLYLINE
  8
Bottom_Silk
  6
CONTINUOUS
  66
1
  70
0
  40
0.0031
  41
0.0031
  0
VERTEX
  8
Bottom_Silk
  10
0.2177
  20
0.2985
  42
1
  0
VERTEX
  8
Bottom_Silk
  10
0.2208
  20
0.2985
  42
1
  0
VERTEX
  8
Bottom_Silk
  10
0.2177
  20
0.2985
  42
1
  0
SEQEND
  0
POLYLINE
  8
Bottom_Silk
  6
CONTINUOUS
  66
1
  70
0
  40
0.0062
  41
0.0062
  0
VERTEX
  8
Bottom_Silk
  10
0.1974
  20
0.3195
  42
0
  0
VERTEX
  8
Bottom_Silk
  10
0.2012
  20
0.3176
  42
0
  0
VERTEX
  8
Bottom_Silk
  10
0.205
  20
0.3138
  42
0
  0
VERTEX
  8
Bottom_Silk
  10
0.2069
  20
0.308
  42
0
  0
VERTEX
  8
Bottom_Silk
  10
0.2069
  20
0.3042
  42
0
  0
VERTEX
  8
Bottom_Silk
  10
0.205
  20
0.2985
  42
0
  0
VERTEX
  8
Bottom_Silk
  10
0.2012
  20
0.2947
  42
0
  0
VERTEX
  8
Bottom_Silk
  10
0.1974
  20
0.2927
  42
0
  0
VERTEX
  8
Bottom_Silk
  10
0.1916
  20
0.2927
  42
0
  0
VERTEX
  8
Bottom_Silk
  10
0.1878
  20
0.2947
  42
0
  0
VERTEX
  8
Bottom_Silk
  10
0.184
  20
0.2985
  42
0
  0
VERTEX
  8
Bottom_Silk
  10
0.182
  20
0.3042
  42
0
  0
VERTEX
  8
Bottom_Silk
  10
0.182
  20
0.308
  42
0
  0
VERTEX
  8
Bottom_Silk
  10
0.184
  20
0.3138
  42
0
  0
VERTEX
  8
Bottom_Silk
  10
0.1878
  20
0.3176
  42
0
  0
VERTEX
  8
Bottom_Silk
  10
0.1916
  20
0.3195
  42
0
  0
VERTEX
  8
Bottom_Silk
  10
0.1974
  20
0.3195
  42
0
  0
SEQEND
  0
POLYLINE
  8
Bottom_Silk
  6
CONTINUOUS
  66
1
  70
0
  40
0.0031
  41
0.0031
  0
VERTEX
  8
Bottom_Silk
  10
0.1958
  20
0.3195
  42
1
  0
VERTEX
  8
Bottom_Silk
  10
0.1989
  20
0.3195
  42
1
  0
VERTEX
  8
Bottom_Silk
  10
0.1958
  20
0.3195
  42
1
  0
SEQEND
  0
POLYLINE
  8
Bottom_Silk
  6
CONTINUOUS
  66
1
  70
0
  40
0.0062
  41
0.0062
  0
VERTEX
  8
Bottom_Silk
  10
0.1678
  20
0.2966
  42
0
  0
VERTEX
  8
Bottom_Silk
  10
0.1697
  20
0.2946
  42
0
  0
VERTEX
  8
Bottom_Silk
  10
0.1678
  20
0.2927
  42
0
  0
VERTEX
  8
Bottom_Silk
  10
0.1658
  20
0.2946
  42
0
  0
VERTEX
  8
Bottom_Silk
  10
0.1678
  20
0.2966
  42
0
  0
SEQEND
  0
POLYLINE
  8
Bottom_Silk
  6
CONTINUOUS
  66
1
  70
0
  40
0.0031
  41
0.0031
  0
VERTEX
  8
Bottom_Silk
  10
0.1663
  20
0.2966
  42
1
  0
VERTEX
  8
Bottom_Silk
  10
0.1693
  20
0.2966
  42
1
  0
VERTEX
  8
Bottom_Silk
  10
0.1663
  20
0.2966
  42
1
  0
SEQEND
  0
POLYLINE
  8
Bottom_Silk
  6
CONTINUOUS
  66
1
  70
0
  40
0.0062
  41
0.0062
  0
VERTEX
  8
Bottom_Silk
  10
0.1535
  20
0.3329
  42
0
  0
VERTEX
  8
Bottom_Silk
  10
0.1535
  20
0.2927
  42
0
  0
SEQEND
  0
POLYLINE
  8
Bottom_Silk
  6
CONTINUOUS
  66
1
  70
0
  40
0.0031
  41
0.0031
  0
VERTEX
  8
Bottom_Silk
  10
0.152
  20
0.3329
  42
1
  0
VERTEX
  8
Bottom_Silk
  10
0.155
  20
0.3329
  42
1
  0
VERTEX
  8
Bottom_Silk
  10
0.152
  20
0.3329
  42
1
  0
SEQEND
  0
POLYLINE
  8
Bottom_Silk
  6
CONTINUOUS
  66
1
  70
0
  40
0.0031
  41
0.0031
  0
VERTEX
  8
Bottom_Silk
  10
0.152
  20
0.2927
  42
1
  0
VERTEX
  8
Bottom_Silk
  10
0.155
  20
0.2927
  42
1
  0
VERTEX
  8
Bottom_Silk
  10
0.152
  20
0.2927
  42
1
  0
SEQEND
  0
POLYLINE
  8
Bottom_Silk
  6
CONTINUOUS
  66
1
  70
0
  40
0.0062
  41
0.0062
  0
VERTEX
  8
Bottom_Silk
  10
0.1344
  20
0.3195
  42
0
  0
VERTEX
  8
Bottom_Silk
  10
0.1535
  20
0.3004
  42
0
  0
SEQEND
  0
POLYLINE
  8
Bottom_Silk
  6
CONTINUOUS
  66
1
  70
0
  40
0.0031
  41
0.0031
  0
VERTEX
  8
Bottom_Silk
  10
0.1328
  20
0.3195
  42
1
  0
VERTEX
  8
Bottom_Silk
  10
0.1359
  20
0.3195
  42
1
  0
VERTEX
  8
Bottom_Silk
  10
0.1328
  20
0.3195
  42
1
  0
SEQEND
  0
POLYLINE
  8
Bottom_Silk
  6
CONTINUOUS
  66
1
  70
0
  40
0.0031
  41
0.0031
  0
VERTEX
  8
Bottom_Silk
  10
0.152
  20
0.3004
  42
1
  0
VERTEX
  8
Bottom_Silk
  10
0.155
  20
0.3004
  42
1
  0
VERTEX
  8
Bottom_Silk
  10
0.152
  20
0.3004
  42
1
  0
SEQEND
  0
POLYLINE
  8
Bottom_Silk
  6
CONTINUOUS
  66
1
  70
0
  40
0.0062
  41
0.0062
  0
VERTEX
  8
Bottom_Silk
  10
0.1458
  20
0.308
  42
0
  0
VERTEX
  8
Bottom_Silk
  10
0.1325
  20
0.2927
  42
0
  0
SEQEND
  0
POLYLINE
  8
Bottom_Silk
  6
CONTINUOUS
  66
1
  70
0
  40
0.0031
  41
0.0031
  0
VERTEX
  8
Bottom_Silk
  10
0.1443
  20
0.308
  42
1
  0
VERTEX
  8
Bottom_Silk
  10
0.1474
  20
0.308
  42
1
  0
VERTEX
  8
Bottom_Silk
  10
0.1443
  20
0.308
  42
1
  0
SEQEND
  0
POLYLINE
  8
Bottom_Silk
  6
CONTINUOUS
  66
1
  70
0
  40
0.0031
  41
0.0031
  0
VERTEX
  8
Bottom_Silk
  10
0.1309
  20
0.2927
  42
1
  0
VERTEX
  8
Bottom_Silk
  10
0.134
  20
0.2927
  42
1
  0
VERTEX
  8
Bottom_Silk
  10
0.1309
  20
0.2927
  42
1
  0
SEQEND
  0
POLYLINE
  8
Bottom_Silk
  6
CONTINUOUS
  66
1
  70
0
  40
0.0062
  41
0.0062
  0
VERTEX
  8
Bottom_Silk
  10
0.1201
  20
0.3195
  42
0
  0
VERTEX
  8
Bottom_Silk
  10
0.1201
  20
0.2927
  42
0
  0
SEQEND
  0
POLYLINE
  8
Bottom_Silk
  6
CONTINUOUS
  66
1
  70
0
  40
0.0031
  41
0.0031
  0
VERTEX
  8
Bottom_Silk
  10
0.1186
  20
0.3195
  42
1
  0
VERTEX
  8
Bottom_Silk
  10
0.1216
  20
0.3195
  42
1
  0
VERTEX
  8
Bottom_Silk
  10
0.1186
  20
0.3195
  42
1
  0
SEQEND
  0
POLYLINE
  8
Bottom_Silk
  6
CONTINUOUS
  66
1
  70
0
  40
0.0031
  41
0.0031
  0
VERTEX
  8
Bottom_Silk
  10
0.1186
  20
0.2927
  42
1
  0
VERTEX
  8
Bottom_Silk
  10
0.1216
  20
0.2927
  42
1
  0
VERTEX
  8
Bottom_Silk
  10
0.1186
  20
0.2927
  42
1
  0
SEQEND
  0
POLYLINE
  8
Bottom_Silk
  6
CONTINUOUS
  66
1
  70
0
  40
0.0062
  41
0.0062
  0
VERTEX
  8
Bottom_Silk
  10
0.1201
  20
0.308
  42
0
  0
VERTEX
  8
Bottom_Silk
  10
0.1182
  20
0.3138
  42
0
  0
VERTEX
  8
Bottom_Silk
  10
0.1144
  20
0.3176
  42
0
  0
VERTEX
  8
Bottom_Silk
  10
0.1105
  20
0.3195
  42
0
  0
VERTEX
  8
Bottom_Silk
  10
0.1048
  20
0.3195
  42
0
  0
SEQEND
  0
POLYLINE
  8
Bottom_Silk
  6
CONTINUOUS
  66
1
  70
0
  40
0.0031
  41
0.0031
  0
VERTEX
  8
Bottom_Silk
  10
0.1186
  20
0.308
  42
1
  0
VERTEX
  8
Bottom_Silk
  10
0.1216
  20
0.308
  42
1
  0
VERTEX
  8
Bottom_Silk
  10
0.1186
  20
0.308
  42
1
  0
SEQEND
  0
POLYLINE
  8
Bottom_Silk
  6
CONTINUOUS
  66
1
  70
0
  40
0.0031
  41
0.0031
  0
VERTEX
  8
Bottom_Silk
  10
0.1032
  20
0.3195
  42
1
  0
VERTEX
  8
Bottom_Silk
  10
0.1063
  20
0.3195
  42
1
  0
VERTEX
  8
Bottom_Silk
  10
0.1032
  20
0.3195
  42
1
  0
SEQEND
  0
POLYLINE
  8
Bottom_Silk
  6
CONTINUOUS
  66
1
  70
0
  40
0.0062
  41
0.0062
  0
VERTEX
  8
Bottom_Silk
  10
0.2303
  20
0.2569
  42
0
  0
VERTEX
  8
Bottom_Silk
  10
0.215
  20
0.2167
  42
0
  0
VERTEX
  8
Bottom_Silk
  10
0.1997
  20
0.2569
  42
0
  0
SEQEND
  0
POLYLINE
  8
Bottom_Silk
  6
CONTINUOUS
  66
1
  70
0
  40
0.0031
  41
0.0031
  0
VERTEX
  8
Bottom_Silk
  10
0.2288
  20
0.2569
  42
1
  0
VERTEX
  8
Bottom_Silk
  10
0.2318
  20
0.2569
  42
1
  0
VERTEX
  8
Bottom_Silk
  10
0.2288
  20
0.2569
  42
1
  0
SEQEND
  0
POLYLINE
  8
Bottom_Silk
  6
CONTINUOUS
  66
1
  70
0
  40
0.0031
  41
0.0031
  0
VERTEX
  8
Bottom_Silk
  10
0.1982
  20
0.2569
  42
1
  0
VERTEX
  8
Bottom_Silk
  10
0.2012
  20
0.2569
  42
1
  0
VERTEX
  8
Bottom_Silk
  10
0.1982
  20
0.2569
  42
1
  0
SEQEND
  0
POLYLINE
  8
Bottom_Silk
  6
CONTINUOUS
  66
1
  70
0
  40
0.0062
  41
0.0062
  0
VERTEX
  8
Bottom_Silk
  10
0.1874
  20
0.2492
  42
0
  0
VERTEX
  8
Bottom_Silk
  10
0.1835
  20
0.2511
  42
0
  0
VERTEX
  8
Bottom_Silk
  10
0.1778
  20
0.2568
  42
0
  0
VERTEX
  8
Bottom_Silk
  10
0.1778
  20
0.2167
  42
0
  0
SEQEND
  0
POLYLINE
  8
Bottom_Silk
  6
CONTINUOUS
  66
1
  70
0
  40
0.0031
  41
0.0031
  0
VERTEX
  8
Bottom_Silk
  10
0.1858
  20
0.2492
  42
1
  0
VERTEX
  8
Bottom_Silk
  10
0.1889
  20
0.2492
  42
1
  0
VERTEX
  8
Bottom_Silk
  10
0.1858
  20
0.2492
  42
1
  0
SEQEND
  0
POLYLINE
  8
Bottom_Silk
  6
CONTINUOUS
  66
1
  70
0
  40
0.0031
  41
0.0031
  0
VERTEX
  8
Bottom_Silk
  10
0.1762
  20
0.2167
  42
1
  0
VERTEX
  8
Bottom_Silk
  10
0.1793
  20
0.2167
  42
1
  0
VERTEX
  8
Bottom_Silk
  10
0.1762
  20
0.2167
  42
1
  0
SEQEND
  0
POLYLINE
  8
Bottom_Silk
  6
CONTINUOUS
  66
1
  70
0
  40
0.0062
  41
0.0062
  0
VERTEX
  8
Bottom_Silk
  10
0.1635
  20
0.2205
  42
0
  0
VERTEX
  8
Bottom_Silk
  10
0.1654
  20
0.2186
  42
0
  0
VERTEX
  8
Bottom_Silk
  10
0.1635
  20
0.2167
  42
0
  0
VERTEX
  8
Bottom_Silk
  10
0.1616
  20
0.2186
  42
0
  0
VERTEX
  8
Bottom_Silk
  10
0.1635
  20
0.2205
  42
0
  0
SEQEND
  0
POLYLINE
  8
Bottom_Silk
  6
CONTINUOUS
  66
1
  70
0
  40
0.0031
  41
0.0031
  0
VERTEX
  8
Bottom_Silk
  10
0.162
  20
0.2205
  42
1
  0
VERTEX
  8
Bottom_Silk
  10
0.1651
  20
0.2205
  42
1
  0
VERTEX
  8
Bottom_Silk
  10
0.162
  20
0.2205
  42
1
  0
SEQEND
  0
POLYLINE
  8
Bottom_Silk
  6
CONTINUOUS
  66
1
  70
0
  40
0.0062
  41
0.0062
  0
VERTEX
  8
Bottom_Silk
  10
0.1377
  20
0.2568
  42
0
  0
VERTEX
  8
Bottom_Silk
  10
0.1435
  20
0.2549
  42
0
  0
VERTEX
  8
Bottom_Silk
  10
0.1473
  20
0.2492
  42
0
  0
VERTEX
  8
Bottom_Silk
  10
0.1492
  20
0.2396
  42
0
  0
VERTEX
  8
Bottom_Silk
  10
0.1492
  20
0.2339
  42
0
  0
VERTEX
  8
Bottom_Silk
  10
0.1473
  20
0.2243
  42
0
  0
VERTEX
  8
Bottom_Silk
  10
0.1435
  20
0.2186
  42
0
  0
VERTEX
  8
Bottom_Silk
  10
0.1377
  20
0.2167
  42
0
  0
VERTEX
  8
Bottom_Silk
  10
0.1339
  20
0.2167
  42
0
  0
VERTEX
  8
Bottom_Silk
  10
0.1282
  20
0.2186
  42
0
  0
VERTEX
  8
Bottom_Silk
  10
0.1244
  20
0.2243
  42
0
  0
VERTEX
  8
Bottom_Silk
  10
0.1224
  20
0.2339
  42
0
  0
VERTEX
  8
Bottom_Silk
  10
0.1224
  20
0.2396
  42
0
  0
VERTEX
  8
Bottom_Silk
  10
0.1244
  20
0.2492
  42
0
  0
VERTEX
  8
Bottom_Silk
  10
0.1282
  20
0.2549
  42
0
  0
VERTEX
  8
Bottom_Silk
  10
0.1339
  20
0.2568
  42
0
  0
VERTEX
  8
Bottom_Silk
  10
0.1377
  20
0.2568
  42
0
  0
SEQEND
  0
POLYLINE
  8
Bottom_Silk
  6
CONTINUOUS
  66
1
  70
0
  40
0.0031
  41
0.0031
  0
VERTEX
  8
Bottom_Silk
  10
0.1362
  20
0.2568
  42
1
  0
VERTEX
  8
Bottom_Silk
  10
0.1393
  20
0.2568
  42
1
  0
VERTEX
  8
Bottom_Silk
  10
0.1362
  20
0.2568
  42
1
  0
SEQEND
  0
POLYLINE
  8
Bottom_Silk
  6
CONTINUOUS
  66
1
  70
0
  40
0.0062
  41
0.0062
  0
VERTEX
  8
Bottom_Silk
  10
0.1244
  20
0.2492
  42
0
  0
VERTEX
  8
Bottom_Silk
  10
0.1473
  20
0.2243
  42
0
  0
SEQEND
  0
POLYLINE
  8
Bottom_Silk
  6
CONTINUOUS
  66
1
  70
0
  40
0.0031
  41
0.0031
  0
VERTEX
  8
Bottom_Silk
  10
0.1228
  20
0.2492
  42
1
  0
VERTEX
  8
Bottom_Silk
  10
0.1259
  20
0.2492
  42
1
  0
VERTEX
  8
Bottom_Silk
  10
0.1228
  20
0.2492
  42
1
  0
SEQEND
  0
POLYLINE
  8
Bottom_Silk
  6
CONTINUOUS
  66
1
  70
0
  40
0.0031
  41
0.0031
  0
VERTEX
  8
Bottom_Silk
  10
0.1458
  20
0.2243
  42
1
  0
VERTEX
  8
Bottom_Silk
  10
0.1489
  20
0.2243
  42
1
  0
VERTEX
  8
Bottom_Silk
  10
0.1458
  20
0.2243
  42
1
  0
SEQEND
  0
ENDSEC
  0
EOF
