  0
SECTION
  2
HEADER
  9
$ACADVER
  1
AC1009
  9
$ANGDIR
  70
0
  9
$CECOLOR
  62
256
  9
$CELTYPE
  6
BYLAYER
  9
$EXTMIN
  10
0.0
  20
0.0
  9
$EXTMAX
  10
0.7087
  20
0.6693
  9
$FILLMODE
  70
1
  9
$MIRRTEXT
  70
0
  0
ENDSEC
  0
SECTION
  2
TABLES
  0
TABLE
  2
LAYER
  70
17
  0
LAYER
  2
Top_Assy
  70
64
  62
1
  6
CONTINUOUS
  0
LAYER
  2
Top_Silk
  70
64
  62
2
  6
CONTINUOUS
  0
LAYER
  2
Top_Mask
  70
64
  62
3
  6
CONTINUOUS
  0
LAYER
  2
Top_Paste
  70
64
  62
4
  6
CONTINUOUS
  0
LAYER
  2
Top
  70
64
  62
5
  6
CONTINUOUS
  0
LAYER
  2
Bottom
  70
64
  62
6
  6
CONTINUOUS
  0
LAYER
  2
Drill_Top
  70
64
  62
7
  6
CONTINUOUS
  0
LAYER
  2
Drill_Bottom
  70
64
  62
8
  6
CONTINUOUS
  0
LAYER
  2
Bottom_Paste
  70
64
  62
9
  6
CONTINUOUS
  0
LAYER
  2
Bottom_Mask
  70
64
  62
10
  6
CONTINUOUS
  0
LAYER
  2
Bottom_Silk
  70
64
  62
11
  6
CONTINUOUS
  0
LAYER
  2
Bottom_Assy
  70
64
  62
12
  6
CONTINUOUS
  0
LAYER
  2
Board_Outline
  70
64
  62
13
  6
CONTINUOUS
  0
LAYER
  2
Top_Dimension
  70
64
  62
14
  6
CONTINUOUS
  0
LAYER
  2
Bottom_Dimension
  70
64
  62
15
  6
CONTINUOUS
  0
ENDTAB
  0
ENDSEC
  0
SECTION
  2
ENTITIES
  0
POLYLINE
  8
Top_Assy
  6
CONTINUOUS
  66
1
  70
0
  40
0.006
  41
0.006
  0
VERTEX
  8
Top_Assy
  10
0.68
  20
0.5575
  42
0
  0
VERTEX
  8
Top_Assy
  10
0.68
  20
0.5055
  42
0
  0
SEQEND
  0
POLYLINE
  8
Top_Assy
  6
CONTINUOUS
  66
1
  70
0
  40
0.003
  41
0.003
  0
VERTEX
  8
Top_Assy
  10
0.6785
  20
0.5575
  42
1
  0
VERTEX
  8
Top_Assy
  10
0.6815
  20
0.5575
  42
1
  0
VERTEX
  8
Top_Assy
  10
0.6785
  20
0.5575
  42
1
  0
SEQEND
  0
POLYLINE
  8
Top_Assy
  6
CONTINUOUS
  66
1
  70
0
  40
0.003
  41
0.003
  0
VERTEX
  8
Top_Assy
  10
0.6785
  20
0.5055
  42
1
  0
VERTEX
  8
Top_Assy
  10
0.6815
  20
0.5055
  42
1
  0
VERTEX
  8
Top_Assy
  10
0.6785
  20
0.5055
  42
1
  0
SEQEND
  0
POLYLINE
  8
Top_Assy
  6
CONTINUOUS
  66
1
  70
0
  40
0.006
  41
0.006
  0
VERTEX
  8
Top_Assy
  10
0.68
  20
0.5055
  42
0
  0
VERTEX
  8
Top_Assy
  10
0.568
  20
0.5055
  42
0
  0
SEQEND
  0
POLYLINE
  8
Top_Assy
  6
CONTINUOUS
  66
1
  70
0
  40
0.003
  41
0.003
  0
VERTEX
  8
Top_Assy
  10
0.6785
  20
0.5055
  42
1
  0
VERTEX
  8
Top_Assy
  10
0.6815
  20
0.5055
  42
1
  0
VERTEX
  8
Top_Assy
  10
0.6785
  20
0.5055
  42
1
  0
SEQEND
  0
POLYLINE
  8
Top_Assy
  6
CONTINUOUS
  66
1
  70
0
  40
0.003
  41
0.003
  0
VERTEX
  8
Top_Assy
  10
0.5665
  20
0.5055
  42
1
  0
VERTEX
  8
Top_Assy
  10
0.5695
  20
0.5055
  42
1
  0
VERTEX
  8
Top_Assy
  10
0.5665
  20
0.5055
  42
1
  0
SEQEND
  0
POLYLINE
  8
Top_Assy
  6
CONTINUOUS
  66
1
  70
0
  40
0.006
  41
0.006
  0
VERTEX
  8
Top_Assy
  10
0.568
  20
0.5055
  42
0
  0
VERTEX
  8
Top_Assy
  10
0.568
  20
0.5575
  42
0
  0
SEQEND
  0
POLYLINE
  8
Top_Assy
  6
CONTINUOUS
  66
1
  70
0
  40
0.003
  41
0.003
  0
VERTEX
  8
Top_Assy
  10
0.5665
  20
0.5055
  42
1
  0
VERTEX
  8
Top_Assy
  10
0.5695
  20
0.5055
  42
1
  0
VERTEX
  8
Top_Assy
  10
0.5665
  20
0.5055
  42
1
  0
SEQEND
  0
POLYLINE
  8
Top_Assy
  6
CONTINUOUS
  66
1
  70
0
  40
0.003
  41
0.003
  0
VERTEX
  8
Top_Assy
  10
0.5665
  20
0.5575
  42
1
  0
VERTEX
  8
Top_Assy
  10
0.5695
  20
0.5575
  42
1
  0
VERTEX
  8
Top_Assy
  10
0.5665
  20
0.5575
  42
1
  0
SEQEND
  0
POLYLINE
  8
Top_Assy
  6
CONTINUOUS
  66
1
  70
0
  40
0.006
  41
0.006
  0
VERTEX
  8
Top_Assy
  10
0.568
  20
0.5575
  42
0
  0
VERTEX
  8
Top_Assy
  10
0.68
  20
0.5575
  42
0
  0
SEQEND
  0
POLYLINE
  8
Top_Assy
  6
CONTINUOUS
  66
1
  70
0
  40
0.003
  41
0.003
  0
VERTEX
  8
Top_Assy
  10
0.5665
  20
0.5575
  42
1
  0
VERTEX
  8
Top_Assy
  10
0.5695
  20
0.5575
  42
1
  0
VERTEX
  8
Top_Assy
  10
0.5665
  20
0.5575
  42
1
  0
SEQEND
  0
POLYLINE
  8
Top_Assy
  6
CONTINUOUS
  66
1
  70
0
  40
0.003
  41
0.003
  0
VERTEX
  8
Top_Assy
  10
0.6785
  20
0.5575
  42
1
  0
VERTEX
  8
Top_Assy
  10
0.6815
  20
0.5575
  42
1
  0
VERTEX
  8
Top_Assy
  10
0.6785
  20
0.5575
  42
1
  0
SEQEND
  0
SOLID
  8
Top_Assy
  10
0.2239
  20
0.2213
  11
0.2436
  21
0.2213
  12
0.2239
  22
0.2587
  13
0.2436
  23
0.2587
  0
SOLID
  8
Top_Assy
  10
0.1779
  20
0.2213
  11
0.1976
  21
0.2213
  12
0.1779
  22
0.2587
  13
0.1976
  23
0.2587
  0
POLYLINE
  8
Top_Assy
  6
CONTINUOUS
  66
1
  70
0
  40
0.004
  41
0.004
  0
VERTEX
  8
Top_Assy
  10
0.2246
  20
0.2232
  42
0
  0
VERTEX
  8
Top_Assy
  10
0.1966
  20
0.2232
  42
0
  0
SEQEND
  0
POLYLINE
  8
Top_Assy
  6
CONTINUOUS
  66
1
  70
0
  40
0.002
  41
0.002
  0
VERTEX
  8
Top_Assy
  10
0.2236
  20
0.2232
  42
1
  0
VERTEX
  8
Top_Assy
  10
0.2256
  20
0.2232
  42
1
  0
VERTEX
  8
Top_Assy
  10
0.2236
  20
0.2232
  42
1
  0
SEQEND
  0
POLYLINE
  8
Top_Assy
  6
CONTINUOUS
  66
1
  70
0
  40
0.002
  41
0.002
  0
VERTEX
  8
Top_Assy
  10
0.1956
  20
0.2232
  42
1
  0
VERTEX
  8
Top_Assy
  10
0.1976
  20
0.2232
  42
1
  0
VERTEX
  8
Top_Assy
  10
0.1956
  20
0.2232
  42
1
  0
SEQEND
  0
POLYLINE
  8
Top_Assy
  6
CONTINUOUS
  66
1
  70
0
  40
0.004
  41
0.004
  0
VERTEX
  8
Top_Assy
  10
0.2246
  20
0.2567
  42
0
  0
VERTEX
  8
Top_Assy
  10
0.1966
  20
0.2567
  42
0
  0
SEQEND
  0
POLYLINE
  8
Top_Assy
  6
CONTINUOUS
  66
1
  70
0
  40
0.002
  41
0.002
  0
VERTEX
  8
Top_Assy
  10
0.2236
  20
0.2567
  42
1
  0
VERTEX
  8
Top_Assy
  10
0.2256
  20
0.2567
  42
1
  0
VERTEX
  8
Top_Assy
  10
0.2236
  20
0.2567
  42
1
  0
SEQEND
  0
POLYLINE
  8
Top_Assy
  6
CONTINUOUS
  66
1
  70
0
  40
0.002
  41
0.002
  0
VERTEX
  8
Top_Assy
  10
0.1956
  20
0.2567
  42
1
  0
VERTEX
  8
Top_Assy
  10
0.1976
  20
0.2567
  42
1
  0
VERTEX
  8
Top_Assy
  10
0.1956
  20
0.2567
  42
1
  0
SEQEND
  0
SOLID
  8
Top_Assy
  10
0.6098
  20
0.1465
  11
0.6294
  21
0.1465
  12
0.6098
  22
0.1839
  13
0.6294
  23
0.1839
  0
SOLID
  8
Top_Assy
  10
0.5638
  20
0.1465
  11
0.5834
  21
0.1465
  12
0.5638
  22
0.1839
  13
0.5834
  23
0.1839
  0
POLYLINE
  8
Top_Assy
  6
CONTINUOUS
  66
1
  70
0
  40
0.004
  41
0.004
  0
VERTEX
  8
Top_Assy
  10
0.6105
  20
0.1483
  42
0
  0
VERTEX
  8
Top_Assy
  10
0.5824
  20
0.1483
  42
0
  0
SEQEND
  0
POLYLINE
  8
Top_Assy
  6
CONTINUOUS
  66
1
  70
0
  40
0.002
  41
0.002
  0
VERTEX
  8
Top_Assy
  10
0.6095
  20
0.1483
  42
1
  0
VERTEX
  8
Top_Assy
  10
0.6115
  20
0.1483
  42
1
  0
VERTEX
  8
Top_Assy
  10
0.6095
  20
0.1483
  42
1
  0
SEQEND
  0
POLYLINE
  8
Top_Assy
  6
CONTINUOUS
  66
1
  70
0
  40
0.002
  41
0.002
  0
VERTEX
  8
Top_Assy
  10
0.5814
  20
0.1483
  42
1
  0
VERTEX
  8
Top_Assy
  10
0.5834
  20
0.1483
  42
1
  0
VERTEX
  8
Top_Assy
  10
0.5814
  20
0.1483
  42
1
  0
SEQEND
  0
POLYLINE
  8
Top_Assy
  6
CONTINUOUS
  66
1
  70
0
  40
0.004
  41
0.004
  0
VERTEX
  8
Top_Assy
  10
0.6105
  20
0.1818
  42
0
  0
VERTEX
  8
Top_Assy
  10
0.5824
  20
0.1818
  42
0
  0
SEQEND
  0
POLYLINE
  8
Top_Assy
  6
CONTINUOUS
  66
1
  70
0
  40
0.002
  41
0.002
  0
VERTEX
  8
Top_Assy
  10
0.6095
  20
0.1818
  42
1
  0
VERTEX
  8
Top_Assy
  10
0.6115
  20
0.1818
  42
1
  0
VERTEX
  8
Top_Assy
  10
0.6095
  20
0.1818
  42
1
  0
SEQEND
  0
POLYLINE
  8
Top_Assy
  6
CONTINUOUS
  66
1
  70
0
  40
0.002
  41
0.002
  0
VERTEX
  8
Top_Assy
  10
0.5814
  20
0.1818
  42
1
  0
VERTEX
  8
Top_Assy
  10
0.5834
  20
0.1818
  42
1
  0
VERTEX
  8
Top_Assy
  10
0.5814
  20
0.1818
  42
1
  0
SEQEND
  0
SOLID
  8
Top_Assy
  10
0.2724
  20
0.5083
  11
0.3099
  21
0.5083
  12
0.2724
  22
0.4887
  13
0.3099
  23
0.4887
  0
SOLID
  8
Top_Assy
  10
0.2724
  20
0.5543
  11
0.3099
  21
0.5543
  12
0.2724
  22
0.5347
  13
0.3099
  23
0.5347
  0
POLYLINE
  8
Top_Assy
  6
CONTINUOUS
  66
1
  70
0
  40
0.004
  41
0.004
  0
VERTEX
  8
Top_Assy
  10
0.2743
  20
0.5076
  42
0
  0
VERTEX
  8
Top_Assy
  10
0.2743
  20
0.5357
  42
0
  0
SEQEND
  0
POLYLINE
  8
Top_Assy
  6
CONTINUOUS
  66
1
  70
0
  40
0.002
  41
0.002
  0
VERTEX
  8
Top_Assy
  10
0.2733
  20
0.5076
  42
1
  0
VERTEX
  8
Top_Assy
  10
0.2753
  20
0.5076
  42
1
  0
VERTEX
  8
Top_Assy
  10
0.2733
  20
0.5076
  42
1
  0
SEQEND
  0
POLYLINE
  8
Top_Assy
  6
CONTINUOUS
  66
1
  70
0
  40
0.002
  41
0.002
  0
VERTEX
  8
Top_Assy
  10
0.2733
  20
0.5357
  42
1
  0
VERTEX
  8
Top_Assy
  10
0.2753
  20
0.5357
  42
1
  0
VERTEX
  8
Top_Assy
  10
0.2733
  20
0.5357
  42
1
  0
SEQEND
  0
POLYLINE
  8
Top_Assy
  6
CONTINUOUS
  66
1
  70
0
  40
0.004
  41
0.004
  0
VERTEX
  8
Top_Assy
  10
0.3078
  20
0.5076
  42
0
  0
VERTEX
  8
Top_Assy
  10
0.3078
  20
0.5357
  42
0
  0
SEQEND
  0
POLYLINE
  8
Top_Assy
  6
CONTINUOUS
  66
1
  70
0
  40
0.002
  41
0.002
  0
VERTEX
  8
Top_Assy
  10
0.3068
  20
0.5076
  42
1
  0
VERTEX
  8
Top_Assy
  10
0.3088
  20
0.5076
  42
1
  0
VERTEX
  8
Top_Assy
  10
0.3068
  20
0.5076
  42
1
  0
SEQEND
  0
POLYLINE
  8
Top_Assy
  6
CONTINUOUS
  66
1
  70
0
  40
0.002
  41
0.002
  0
VERTEX
  8
Top_Assy
  10
0.3068
  20
0.5357
  42
1
  0
VERTEX
  8
Top_Assy
  10
0.3088
  20
0.5357
  42
1
  0
VERTEX
  8
Top_Assy
  10
0.3068
  20
0.5357
  42
1
  0
SEQEND
  0
SOLID
  8
Top_Assy
  10
0.3512
  20
0.5083
  11
0.3886
  21
0.5083
  12
0.3512
  22
0.4887
  13
0.3886
  23
0.4887
  0
SOLID
  8
Top_Assy
  10
0.3512
  20
0.5543
  11
0.3886
  21
0.5543
  12
0.3512
  22
0.5347
  13
0.3886
  23
0.5347
  0
POLYLINE
  8
Top_Assy
  6
CONTINUOUS
  66
1
  70
0
  40
0.004
  41
0.004
  0
VERTEX
  8
Top_Assy
  10
0.3531
  20
0.5076
  42
0
  0
VERTEX
  8
Top_Assy
  10
0.3531
  20
0.5357
  42
0
  0
SEQEND
  0
POLYLINE
  8
Top_Assy
  6
CONTINUOUS
  66
1
  70
0
  40
0.002
  41
0.002
  0
VERTEX
  8
Top_Assy
  10
0.3521
  20
0.5076
  42
1
  0
VERTEX
  8
Top_Assy
  10
0.3541
  20
0.5076
  42
1
  0
VERTEX
  8
Top_Assy
  10
0.3521
  20
0.5076
  42
1
  0
SEQEND
  0
POLYLINE
  8
Top_Assy
  6
CONTINUOUS
  66
1
  70
0
  40
0.002
  41
0.002
  0
VERTEX
  8
Top_Assy
  10
0.3521
  20
0.5357
  42
1
  0
VERTEX
  8
Top_Assy
  10
0.3541
  20
0.5357
  42
1
  0
VERTEX
  8
Top_Assy
  10
0.3521
  20
0.5357
  42
1
  0
SEQEND
  0
POLYLINE
  8
Top_Assy
  6
CONTINUOUS
  66
1
  70
0
  40
0.004
  41
0.004
  0
VERTEX
  8
Top_Assy
  10
0.3866
  20
0.5076
  42
0
  0
VERTEX
  8
Top_Assy
  10
0.3866
  20
0.5357
  42
0
  0
SEQEND
  0
POLYLINE
  8
Top_Assy
  6
CONTINUOUS
  66
1
  70
0
  40
0.002
  41
0.002
  0
VERTEX
  8
Top_Assy
  10
0.3856
  20
0.5076
  42
1
  0
VERTEX
  8
Top_Assy
  10
0.3876
  20
0.5076
  42
1
  0
VERTEX
  8
Top_Assy
  10
0.3856
  20
0.5076
  42
1
  0
SEQEND
  0
POLYLINE
  8
Top_Assy
  6
CONTINUOUS
  66
1
  70
0
  40
0.002
  41
0.002
  0
VERTEX
  8
Top_Assy
  10
0.3856
  20
0.5357
  42
1
  0
VERTEX
  8
Top_Assy
  10
0.3876
  20
0.5357
  42
1
  0
VERTEX
  8
Top_Assy
  10
0.3856
  20
0.5357
  42
1
  0
SEQEND
  0
POLYLINE
  8
Top_Assy
  6
CONTINUOUS
  66
1
  70
0
  40
0.0098
  41
0.0098
  0
VERTEX
  8
Top_Assy
  10
0.1189
  20
0.6299
  42
0
  0
VERTEX
  8
Top_Assy
  10
0.1189
  20
0.0315
  42
0
  0
SEQEND
  0
POLYLINE
  8
Top_Assy
  6
CONTINUOUS
  66
1
  70
0
  40
0.0049
  41
0.0049
  0
VERTEX
  8
Top_Assy
  10
0.1164
  20
0.6299
  42
1
  0
VERTEX
  8
Top_Assy
  10
0.1214
  20
0.6299
  42
1
  0
VERTEX
  8
Top_Assy
  10
0.1164
  20
0.6299
  42
1
  0
SEQEND
  0
POLYLINE
  8
Top_Assy
  6
CONTINUOUS
  66
1
  70
0
  40
0.0049
  41
0.0049
  0
VERTEX
  8
Top_Assy
  10
0.1164
  20
0.0315
  42
1
  0
VERTEX
  8
Top_Assy
  10
0.1214
  20
0.0315
  42
1
  0
VERTEX
  8
Top_Assy
  10
0.1164
  20
0.0315
  42
1
  0
SEQEND
  0
POLYLINE
  8
Top_Assy
  6
CONTINUOUS
  66
1
  70
0
  40
0.0031
  41
0.0031
  0
VERTEX
  8
Top_Assy
  10
0.1603
  20
0.4302
  42
0
  0
VERTEX
  8
Top_Assy
  10
0.1402
  20
0.4302
  42
0
  0
VERTEX
  8
Top_Assy
  10
0.1402
  20
0.4216
  42
0
  0
VERTEX
  8
Top_Assy
  10
0.1412
  20
0.4187
  42
0
  0
VERTEX
  8
Top_Assy
  10
0.1421
  20
0.4177
  42
0
  0
VERTEX
  8
Top_Assy
  10
0.144
  20
0.4168
  42
0
  0
VERTEX
  8
Top_Assy
  10
0.1469
  20
0.4168
  42
0
  0
VERTEX
  8
Top_Assy
  10
0.1488
  20
0.4177
  42
0
  0
VERTEX
  8
Top_Assy
  10
0.1498
  20
0.4187
  42
0
  0
VERTEX
  8
Top_Assy
  10
0.1507
  20
0.4216
  42
0
  0
VERTEX
  8
Top_Assy
  10
0.1517
  20
0.4187
  42
0
  0
VERTEX
  8
Top_Assy
  10
0.1526
  20
0.4177
  42
0
  0
VERTEX
  8
Top_Assy
  10
0.1545
  20
0.4168
  42
0
  0
VERTEX
  8
Top_Assy
  10
0.1565
  20
0.4168
  42
0
  0
VERTEX
  8
Top_Assy
  10
0.1584
  20
0.4177
  42
0
  0
VERTEX
  8
Top_Assy
  10
0.1593
  20
0.4187
  42
0
  0
VERTEX
  8
Top_Assy
  10
0.1603
  20
0.4216
  42
0
  0
VERTEX
  8
Top_Assy
  10
0.1603
  20
0.4302
  42
0
  0
SEQEND
  0
POLYLINE
  8
Top_Assy
  6
CONTINUOUS
  66
1
  70
0
  40
0.0015
  41
0.0015
  0
VERTEX
  8
Top_Assy
  10
0.1595
  20
0.4302
  42
1
  0
VERTEX
  8
Top_Assy
  10
0.1611
  20
0.4302
  42
1
  0
VERTEX
  8
Top_Assy
  10
0.1595
  20
0.4302
  42
1
  0
SEQEND
  0
POLYLINE
  8
Top_Assy
  6
CONTINUOUS
  66
1
  70
0
  40
0.0031
  41
0.0031
  0
VERTEX
  8
Top_Assy
  10
0.1507
  20
0.4302
  42
0
  0
VERTEX
  8
Top_Assy
  10
0.1507
  20
0.4216
  42
0
  0
SEQEND
  0
POLYLINE
  8
Top_Assy
  6
CONTINUOUS
  66
1
  70
0
  40
0.0015
  41
0.0015
  0
VERTEX
  8
Top_Assy
  10
0.1499
  20
0.4302
  42
1
  0
VERTEX
  8
Top_Assy
  10
0.1515
  20
0.4302
  42
1
  0
VERTEX
  8
Top_Assy
  10
0.1499
  20
0.4302
  42
1
  0
SEQEND
  0
POLYLINE
  8
Top_Assy
  6
CONTINUOUS
  66
1
  70
0
  40
0.0015
  41
0.0015
  0
VERTEX
  8
Top_Assy
  10
0.1499
  20
0.4216
  42
1
  0
VERTEX
  8
Top_Assy
  10
0.1515
  20
0.4216
  42
1
  0
VERTEX
  8
Top_Assy
  10
0.1499
  20
0.4216
  42
1
  0
SEQEND
  0
POLYLINE
  8
Top_Assy
  6
CONTINUOUS
  66
1
  70
0
  40
0.0031
  41
0.0031
  0
VERTEX
  8
Top_Assy
  10
0.1603
  20
0.4049
  42
0
  0
VERTEX
  8
Top_Assy
  10
0.1593
  20
0.4068
  42
0
  0
VERTEX
  8
Top_Assy
  10
0.1574
  20
0.4087
  42
0
  0
VERTEX
  8
Top_Assy
  10
0.1555
  20
0.4097
  42
0
  0
VERTEX
  8
Top_Assy
  10
0.1526
  20
0.4106
  42
0
  0
VERTEX
  8
Top_Assy
  10
0.1478
  20
0.4106
  42
0
  0
VERTEX
  8
Top_Assy
  10
0.145
  20
0.4097
  42
0
  0
VERTEX
  8
Top_Assy
  10
0.1431
  20
0.4087
  42
0
  0
VERTEX
  8
Top_Assy
  10
0.1412
  20
0.4068
  42
0
  0
VERTEX
  8
Top_Assy
  10
0.1402
  20
0.4049
  42
0
  0
VERTEX
  8
Top_Assy
  10
0.1402
  20
0.401
  42
0
  0
VERTEX
  8
Top_Assy
  10
0.1412
  20
0.3991
  42
0
  0
VERTEX
  8
Top_Assy
  10
0.1431
  20
0.3972
  42
0
  0
VERTEX
  8
Top_Assy
  10
0.145
  20
0.3963
  42
0
  0
VERTEX
  8
Top_Assy
  10
0.1478
  20
0.3953
  42
0
  0
VERTEX
  8
Top_Assy
  10
0.1526
  20
0.3953
  42
0
  0
VERTEX
  8
Top_Assy
  10
0.1555
  20
0.3963
  42
0
  0
VERTEX
  8
Top_Assy
  10
0.1574
  20
0.3972
  42
0
  0
VERTEX
  8
Top_Assy
  10
0.1593
  20
0.3991
  42
0
  0
VERTEX
  8
Top_Assy
  10
0.1603
  20
0.401
  42
0
  0
VERTEX
  8
Top_Assy
  10
0.1603
  20
0.4049
  42
0
  0
SEQEND
  0
POLYLINE
  8
Top_Assy
  6
CONTINUOUS
  66
1
  70
0
  40
0.0015
  41
0.0015
  0
VERTEX
  8
Top_Assy
  10
0.1595
  20
0.4049
  42
1
  0
VERTEX
  8
Top_Assy
  10
0.1611
  20
0.4049
  42
1
  0
VERTEX
  8
Top_Assy
  10
0.1595
  20
0.4049
  42
1
  0
SEQEND
  0
POLYLINE
  8
Top_Assy
  6
CONTINUOUS
  66
1
  70
0
  40
0.0031
  41
0.0031
  0
VERTEX
  8
Top_Assy
  10
0.1402
  20
0.3738
  42
0
  0
VERTEX
  8
Top_Assy
  10
0.1603
  20
0.3815
  42
0
  0
VERTEX
  8
Top_Assy
  10
0.1402
  20
0.3891
  42
0
  0
SEQEND
  0
POLYLINE
  8
Top_Assy
  6
CONTINUOUS
  66
1
  70
0
  40
0.0015
  41
0.0015
  0
VERTEX
  8
Top_Assy
  10
0.1394
  20
0.3738
  42
1
  0
VERTEX
  8
Top_Assy
  10
0.141
  20
0.3738
  42
1
  0
VERTEX
  8
Top_Assy
  10
0.1394
  20
0.3738
  42
1
  0
SEQEND
  0
POLYLINE
  8
Top_Assy
  6
CONTINUOUS
  66
1
  70
0
  40
0.0015
  41
0.0015
  0
VERTEX
  8
Top_Assy
  10
0.1394
  20
0.3891
  42
1
  0
VERTEX
  8
Top_Assy
  10
0.141
  20
0.3891
  42
1
  0
VERTEX
  8
Top_Assy
  10
0.1394
  20
0.3891
  42
1
  0
SEQEND
  0
POLYLINE
  8
Top_Assy
  6
CONTINUOUS
  66
1
  70
0
  40
0.0031
  41
0.0031
  0
VERTEX
  8
Top_Assy
  10
0.1469
  20
0.3863
  42
0
  0
VERTEX
  8
Top_Assy
  10
0.1469
  20
0.3767
  42
0
  0
SEQEND
  0
POLYLINE
  8
Top_Assy
  6
CONTINUOUS
  66
1
  70
0
  40
0.0015
  41
0.0015
  0
VERTEX
  8
Top_Assy
  10
0.1461
  20
0.3863
  42
1
  0
VERTEX
  8
Top_Assy
  10
0.1477
  20
0.3863
  42
1
  0
VERTEX
  8
Top_Assy
  10
0.1461
  20
0.3863
  42
1
  0
SEQEND
  0
POLYLINE
  8
Top_Assy
  6
CONTINUOUS
  66
1
  70
0
  40
0.0015
  41
0.0015
  0
VERTEX
  8
Top_Assy
  10
0.1461
  20
0.3767
  42
1
  0
VERTEX
  8
Top_Assy
  10
0.1477
  20
0.3767
  42
1
  0
VERTEX
  8
Top_Assy
  10
0.1461
  20
0.3767
  42
1
  0
SEQEND
  0
POLYLINE
  8
Top_Assy
  6
CONTINUOUS
  66
1
  70
0
  40
0.0031
  41
0.0031
  0
VERTEX
  8
Top_Assy
  10
0.1507
  20
0.3676
  42
0
  0
VERTEX
  8
Top_Assy
  10
0.1507
  20
0.359
  42
0
  0
VERTEX
  8
Top_Assy
  10
0.1517
  20
0.3562
  42
0
  0
VERTEX
  8
Top_Assy
  10
0.1526
  20
0.3552
  42
0
  0
VERTEX
  8
Top_Assy
  10
0.1545
  20
0.3542
  42
0
  0
VERTEX
  8
Top_Assy
  10
0.1565
  20
0.3542
  42
0
  0
VERTEX
  8
Top_Assy
  10
0.1584
  20
0.3552
  42
0
  0
VERTEX
  8
Top_Assy
  10
0.1593
  20
0.3562
  42
0
  0
VERTEX
  8
Top_Assy
  10
0.1603
  20
0.359
  42
0
  0
VERTEX
  8
Top_Assy
  10
0.1603
  20
0.3676
  42
0
  0
VERTEX
  8
Top_Assy
  10
0.1402
  20
0.3676
  42
0
  0
SEQEND
  0
POLYLINE
  8
Top_Assy
  6
CONTINUOUS
  66
1
  70
0
  40
0.0015
  41
0.0015
  0
VERTEX
  8
Top_Assy
  10
0.1499
  20
0.3676
  42
1
  0
VERTEX
  8
Top_Assy
  10
0.1515
  20
0.3676
  42
1
  0
VERTEX
  8
Top_Assy
  10
0.1499
  20
0.3676
  42
1
  0
SEQEND
  0
POLYLINE
  8
Top_Assy
  6
CONTINUOUS
  66
1
  70
0
  40
0.0015
  41
0.0015
  0
VERTEX
  8
Top_Assy
  10
0.1394
  20
0.3676
  42
1
  0
VERTEX
  8
Top_Assy
  10
0.141
  20
0.3676
  42
1
  0
VERTEX
  8
Top_Assy
  10
0.1394
  20
0.3676
  42
1
  0
SEQEND
  0
POLYLINE
  8
Top_Assy
  6
CONTINUOUS
  66
1
  70
0
  40
0.0031
  41
0.0031
  0
VERTEX
  8
Top_Assy
  10
0.1507
  20
0.3609
  42
0
  0
VERTEX
  8
Top_Assy
  10
0.1402
  20
0.3542
  42
0
  0
SEQEND
  0
POLYLINE
  8
Top_Assy
  6
CONTINUOUS
  66
1
  70
0
  40
0.0015
  41
0.0015
  0
VERTEX
  8
Top_Assy
  10
0.1499
  20
0.3609
  42
1
  0
VERTEX
  8
Top_Assy
  10
0.1515
  20
0.3609
  42
1
  0
VERTEX
  8
Top_Assy
  10
0.1499
  20
0.3609
  42
1
  0
SEQEND
  0
POLYLINE
  8
Top_Assy
  6
CONTINUOUS
  66
1
  70
0
  40
0.0015
  41
0.0015
  0
VERTEX
  8
Top_Assy
  10
0.1394
  20
0.3542
  42
1
  0
VERTEX
  8
Top_Assy
  10
0.141
  20
0.3542
  42
1
  0
VERTEX
  8
Top_Assy
  10
0.1394
  20
0.3542
  42
1
  0
SEQEND
  0
POLYLINE
  8
Top_Assy
  6
CONTINUOUS
  66
1
  70
0
  40
0.0031
  41
0.0031
  0
VERTEX
  8
Top_Assy
  10
0.1603
  20
0.3481
  42
0
  0
VERTEX
  8
Top_Assy
  10
0.1402
  20
0.3481
  42
0
  0
VERTEX
  8
Top_Assy
  10
0.1402
  20
0.3414
  42
0
  0
VERTEX
  8
Top_Assy
  10
0.1412
  20
0.3385
  42
0
  0
VERTEX
  8
Top_Assy
  10
0.1431
  20
0.3366
  42
0
  0
VERTEX
  8
Top_Assy
  10
0.145
  20
0.3356
  42
0
  0
VERTEX
  8
Top_Assy
  10
0.1478
  20
0.3347
  42
0
  0
VERTEX
  8
Top_Assy
  10
0.1526
  20
0.3347
  42
0
  0
VERTEX
  8
Top_Assy
  10
0.1555
  20
0.3356
  42
0
  0
VERTEX
  8
Top_Assy
  10
0.1574
  20
0.3366
  42
0
  0
VERTEX
  8
Top_Assy
  10
0.1593
  20
0.3385
  42
0
  0
VERTEX
  8
Top_Assy
  10
0.1603
  20
0.3414
  42
0
  0
VERTEX
  8
Top_Assy
  10
0.1603
  20
0.3481
  42
0
  0
SEQEND
  0
POLYLINE
  8
Top_Assy
  6
CONTINUOUS
  66
1
  70
0
  40
0.0015
  41
0.0015
  0
VERTEX
  8
Top_Assy
  10
0.1595
  20
0.3481
  42
1
  0
VERTEX
  8
Top_Assy
  10
0.1611
  20
0.3481
  42
1
  0
VERTEX
  8
Top_Assy
  10
0.1595
  20
0.3481
  42
1
  0
SEQEND
  0
POLYLINE
  8
Top_Assy
  6
CONTINUOUS
  66
1
  70
0
  40
0.0031
  41
0.0031
  0
VERTEX
  8
Top_Assy
  10
0.1603
  20
0.2966
  42
0
  0
VERTEX
  8
Top_Assy
  10
0.1603
  20
0.309
  42
0
  0
VERTEX
  8
Top_Assy
  10
0.1402
  20
0.309
  42
0
  0
VERTEX
  8
Top_Assy
  10
0.1402
  20
0.2966
  42
0
  0
SEQEND
  0
POLYLINE
  8
Top_Assy
  6
CONTINUOUS
  66
1
  70
0
  40
0.0015
  41
0.0015
  0
VERTEX
  8
Top_Assy
  10
0.1595
  20
0.2966
  42
1
  0
VERTEX
  8
Top_Assy
  10
0.1611
  20
0.2966
  42
1
  0
VERTEX
  8
Top_Assy
  10
0.1595
  20
0.2966
  42
1
  0
SEQEND
  0
POLYLINE
  8
Top_Assy
  6
CONTINUOUS
  66
1
  70
0
  40
0.0015
  41
0.0015
  0
VERTEX
  8
Top_Assy
  10
0.1394
  20
0.2966
  42
1
  0
VERTEX
  8
Top_Assy
  10
0.141
  20
0.2966
  42
1
  0
VERTEX
  8
Top_Assy
  10
0.1394
  20
0.2966
  42
1
  0
SEQEND
  0
POLYLINE
  8
Top_Assy
  6
CONTINUOUS
  66
1
  70
0
  40
0.0031
  41
0.0031
  0
VERTEX
  8
Top_Assy
  10
0.1507
  20
0.309
  42
0
  0
VERTEX
  8
Top_Assy
  10
0.1507
  20
0.3014
  42
0
  0
SEQEND
  0
POLYLINE
  8
Top_Assy
  6
CONTINUOUS
  66
1
  70
0
  40
0.0015
  41
0.0015
  0
VERTEX
  8
Top_Assy
  10
0.1499
  20
0.309
  42
1
  0
VERTEX
  8
Top_Assy
  10
0.1515
  20
0.309
  42
1
  0
VERTEX
  8
Top_Assy
  10
0.1499
  20
0.309
  42
1
  0
SEQEND
  0
POLYLINE
  8
Top_Assy
  6
CONTINUOUS
  66
1
  70
0
  40
0.0015
  41
0.0015
  0
VERTEX
  8
Top_Assy
  10
0.1499
  20
0.3014
  42
1
  0
VERTEX
  8
Top_Assy
  10
0.1515
  20
0.3014
  42
1
  0
VERTEX
  8
Top_Assy
  10
0.1499
  20
0.3014
  42
1
  0
SEQEND
  0
POLYLINE
  8
Top_Assy
  6
CONTINUOUS
  66
1
  70
0
  40
0.0031
  41
0.0031
  0
VERTEX
  8
Top_Assy
  10
0.1603
  20
0.2904
  42
0
  0
VERTEX
  8
Top_Assy
  10
0.1402
  20
0.2904
  42
0
  0
VERTEX
  8
Top_Assy
  10
0.1402
  20
0.2837
  42
0
  0
VERTEX
  8
Top_Assy
  10
0.1412
  20
0.2809
  42
0
  0
VERTEX
  8
Top_Assy
  10
0.1431
  20
0.279
  42
0
  0
VERTEX
  8
Top_Assy
  10
0.145
  20
0.278
  42
0
  0
VERTEX
  8
Top_Assy
  10
0.1478
  20
0.2771
  42
0
  0
VERTEX
  8
Top_Assy
  10
0.1526
  20
0.2771
  42
0
  0
VERTEX
  8
Top_Assy
  10
0.1555
  20
0.278
  42
0
  0
VERTEX
  8
Top_Assy
  10
0.1574
  20
0.279
  42
0
  0
VERTEX
  8
Top_Assy
  10
0.1593
  20
0.2809
  42
0
  0
VERTEX
  8
Top_Assy
  10
0.1603
  20
0.2837
  42
0
  0
VERTEX
  8
Top_Assy
  10
0.1603
  20
0.2904
  42
0
  0
SEQEND
  0
POLYLINE
  8
Top_Assy
  6
CONTINUOUS
  66
1
  70
0
  40
0.0015
  41
0.0015
  0
VERTEX
  8
Top_Assy
  10
0.1595
  20
0.2904
  42
1
  0
VERTEX
  8
Top_Assy
  10
0.1611
  20
0.2904
  42
1
  0
VERTEX
  8
Top_Assy
  10
0.1595
  20
0.2904
  42
1
  0
SEQEND
  0
POLYLINE
  8
Top_Assy
  6
CONTINUOUS
  66
1
  70
0
  40
0.0031
  41
0.0031
  0
VERTEX
  8
Top_Assy
  10
0.1555
  20
0.2565
  42
0
  0
VERTEX
  8
Top_Assy
  10
0.1574
  20
0.2575
  42
0
  0
VERTEX
  8
Top_Assy
  10
0.1593
  20
0.2594
  42
0
  0
VERTEX
  8
Top_Assy
  10
0.1603
  20
0.2613
  42
0
  0
VERTEX
  8
Top_Assy
  10
0.1603
  20
0.2651
  42
0
  0
VERTEX
  8
Top_Assy
  10
0.1593
  20
0.2671
  42
0
  0
VERTEX
  8
Top_Assy
  10
0.1574
  20
0.269
  42
0
  0
VERTEX
  8
Top_Assy
  10
0.1555
  20
0.2699
  42
0
  0
VERTEX
  8
Top_Assy
  10
0.1526
  20
0.2709
  42
0
  0
VERTEX
  8
Top_Assy
  10
0.1478
  20
0.2709
  42
0
  0
VERTEX
  8
Top_Assy
  10
0.145
  20
0.2699
  42
0
  0
VERTEX
  8
Top_Assy
  10
0.1431
  20
0.269
  42
0
  0
VERTEX
  8
Top_Assy
  10
0.1412
  20
0.2671
  42
0
  0
VERTEX
  8
Top_Assy
  10
0.1402
  20
0.2651
  42
0
  0
VERTEX
  8
Top_Assy
  10
0.1402
  20
0.2613
  42
0
  0
VERTEX
  8
Top_Assy
  10
0.1412
  20
0.2594
  42
0
  0
VERTEX
  8
Top_Assy
  10
0.1431
  20
0.2575
  42
0
  0
VERTEX
  8
Top_Assy
  10
0.145
  20
0.2565
  42
0
  0
VERTEX
  8
Top_Assy
  10
0.1478
  20
0.2565
  42
0
  0
VERTEX
  8
Top_Assy
  10
0.1478
  20
0.2613
  42
0
  0
SEQEND
  0
POLYLINE
  8
Top_Assy
  6
CONTINUOUS
  66
1
  70
0
  40
0.0015
  41
0.0015
  0
VERTEX
  8
Top_Assy
  10
0.1547
  20
0.2565
  42
1
  0
VERTEX
  8
Top_Assy
  10
0.1563
  20
0.2565
  42
1
  0
VERTEX
  8
Top_Assy
  10
0.1547
  20
0.2565
  42
1
  0
SEQEND
  0
POLYLINE
  8
Top_Assy
  6
CONTINUOUS
  66
1
  70
0
  40
0.0015
  41
0.0015
  0
VERTEX
  8
Top_Assy
  10
0.1471
  20
0.2613
  42
1
  0
VERTEX
  8
Top_Assy
  10
0.1486
  20
0.2613
  42
1
  0
VERTEX
  8
Top_Assy
  10
0.1471
  20
0.2613
  42
1
  0
SEQEND
  0
POLYLINE
  8
Top_Assy
  6
CONTINUOUS
  66
1
  70
0
  40
0.0031
  41
0.0031
  0
VERTEX
  8
Top_Assy
  10
0.1603
  20
0.2379
  42
0
  0
VERTEX
  8
Top_Assy
  10
0.1603
  20
0.2504
  42
0
  0
VERTEX
  8
Top_Assy
  10
0.1402
  20
0.2504
  42
0
  0
VERTEX
  8
Top_Assy
  10
0.1402
  20
0.2379
  42
0
  0
SEQEND
  0
POLYLINE
  8
Top_Assy
  6
CONTINUOUS
  66
1
  70
0
  40
0.0015
  41
0.0015
  0
VERTEX
  8
Top_Assy
  10
0.1595
  20
0.2379
  42
1
  0
VERTEX
  8
Top_Assy
  10
0.1611
  20
0.2379
  42
1
  0
VERTEX
  8
Top_Assy
  10
0.1595
  20
0.2379
  42
1
  0
SEQEND
  0
POLYLINE
  8
Top_Assy
  6
CONTINUOUS
  66
1
  70
0
  40
0.0015
  41
0.0015
  0
VERTEX
  8
Top_Assy
  10
0.1394
  20
0.2379
  42
1
  0
VERTEX
  8
Top_Assy
  10
0.141
  20
0.2379
  42
1
  0
VERTEX
  8
Top_Assy
  10
0.1394
  20
0.2379
  42
1
  0
SEQEND
  0
POLYLINE
  8
Top_Assy
  6
CONTINUOUS
  66
1
  70
0
  40
0.0031
  41
0.0031
  0
VERTEX
  8
Top_Assy
  10
0.1507
  20
0.2504
  42
0
  0
VERTEX
  8
Top_Assy
  10
0.1507
  20
0.2427
  42
0
  0
SEQEND
  0
POLYLINE
  8
Top_Assy
  6
CONTINUOUS
  66
1
  70
0
  40
0.0015
  41
0.0015
  0
VERTEX
  8
Top_Assy
  10
0.1499
  20
0.2504
  42
1
  0
VERTEX
  8
Top_Assy
  10
0.1515
  20
0.2504
  42
1
  0
VERTEX
  8
Top_Assy
  10
0.1499
  20
0.2504
  42
1
  0
SEQEND
  0
POLYLINE
  8
Top_Assy
  6
CONTINUOUS
  66
1
  70
0
  40
0.0015
  41
0.0015
  0
VERTEX
  8
Top_Assy
  10
0.1499
  20
0.2427
  42
1
  0
VERTEX
  8
Top_Assy
  10
0.1515
  20
0.2427
  42
1
  0
VERTEX
  8
Top_Assy
  10
0.1499
  20
0.2427
  42
1
  0
SEQEND
  0
SOLID
  8
Top_Assy
  10
0.4677
  20
0.535
  11
0.4303
  21
0.535
  12
0.4677
  22
0.5546
  13
0.4303
  23
0.5546
  0
SOLID
  8
Top_Assy
  10
0.4677
  20
0.489
  11
0.4303
  21
0.489
  12
0.4677
  22
0.5086
  13
0.4303
  23
0.5086
  0
POLYLINE
  8
Top_Assy
  6
CONTINUOUS
  66
1
  70
0
  40
0.004
  41
0.004
  0
VERTEX
  8
Top_Assy
  10
0.4658
  20
0.5357
  42
0
  0
VERTEX
  8
Top_Assy
  10
0.4658
  20
0.5076
  42
0
  0
SEQEND
  0
POLYLINE
  8
Top_Assy
  6
CONTINUOUS
  66
1
  70
0
  40
0.002
  41
0.002
  0
VERTEX
  8
Top_Assy
  10
0.4648
  20
0.5357
  42
1
  0
VERTEX
  8
Top_Assy
  10
0.4668
  20
0.5357
  42
1
  0
VERTEX
  8
Top_Assy
  10
0.4648
  20
0.5357
  42
1
  0
SEQEND
  0
POLYLINE
  8
Top_Assy
  6
CONTINUOUS
  66
1
  70
0
  40
0.002
  41
0.002
  0
VERTEX
  8
Top_Assy
  10
0.4648
  20
0.5076
  42
1
  0
VERTEX
  8
Top_Assy
  10
0.4668
  20
0.5076
  42
1
  0
VERTEX
  8
Top_Assy
  10
0.4648
  20
0.5076
  42
1
  0
SEQEND
  0
POLYLINE
  8
Top_Assy
  6
CONTINUOUS
  66
1
  70
0
  40
0.004
  41
0.004
  0
VERTEX
  8
Top_Assy
  10
0.4323
  20
0.5357
  42
0
  0
VERTEX
  8
Top_Assy
  10
0.4323
  20
0.5076
  42
0
  0
SEQEND
  0
POLYLINE
  8
Top_Assy
  6
CONTINUOUS
  66
1
  70
0
  40
0.002
  41
0.002
  0
VERTEX
  8
Top_Assy
  10
0.4313
  20
0.5357
  42
1
  0
VERTEX
  8
Top_Assy
  10
0.4333
  20
0.5357
  42
1
  0
VERTEX
  8
Top_Assy
  10
0.4313
  20
0.5357
  42
1
  0
SEQEND
  0
POLYLINE
  8
Top_Assy
  6
CONTINUOUS
  66
1
  70
0
  40
0.002
  41
0.002
  0
VERTEX
  8
Top_Assy
  10
0.4313
  20
0.5076
  42
1
  0
VERTEX
  8
Top_Assy
  10
0.4333
  20
0.5076
  42
1
  0
VERTEX
  8
Top_Assy
  10
0.4313
  20
0.5076
  42
1
  0
SEQEND
  0
SOLID
  8
Top_Assy
  10
0.5087
  20
0.5083
  11
0.5461
  21
0.5083
  12
0.5087
  22
0.4887
  13
0.5461
  23
0.4887
  0
SOLID
  8
Top_Assy
  10
0.5087
  20
0.5543
  11
0.5461
  21
0.5543
  12
0.5087
  22
0.5347
  13
0.5461
  23
0.5347
  0
POLYLINE
  8
Top_Assy
  6
CONTINUOUS
  66
1
  70
0
  40
0.004
  41
0.004
  0
VERTEX
  8
Top_Assy
  10
0.5106
  20
0.5076
  42
0
  0
VERTEX
  8
Top_Assy
  10
0.5106
  20
0.5357
  42
0
  0
SEQEND
  0
POLYLINE
  8
Top_Assy
  6
CONTINUOUS
  66
1
  70
0
  40
0.002
  41
0.002
  0
VERTEX
  8
Top_Assy
  10
0.5096
  20
0.5076
  42
1
  0
VERTEX
  8
Top_Assy
  10
0.5116
  20
0.5076
  42
1
  0
VERTEX
  8
Top_Assy
  10
0.5096
  20
0.5076
  42
1
  0
SEQEND
  0
POLYLINE
  8
Top_Assy
  6
CONTINUOUS
  66
1
  70
0
  40
0.002
  41
0.002
  0
VERTEX
  8
Top_Assy
  10
0.5096
  20
0.5357
  42
1
  0
VERTEX
  8
Top_Assy
  10
0.5116
  20
0.5357
  42
1
  0
VERTEX
  8
Top_Assy
  10
0.5096
  20
0.5357
  42
1
  0
SEQEND
  0
POLYLINE
  8
Top_Assy
  6
CONTINUOUS
  66
1
  70
0
  40
0.004
  41
0.004
  0
VERTEX
  8
Top_Assy
  10
0.5441
  20
0.5076
  42
0
  0
VERTEX
  8
Top_Assy
  10
0.5441
  20
0.5357
  42
0
  0
SEQEND
  0
POLYLINE
  8
Top_Assy
  6
CONTINUOUS
  66
1
  70
0
  40
0.002
  41
0.002
  0
VERTEX
  8
Top_Assy
  10
0.5431
  20
0.5076
  42
1
  0
VERTEX
  8
Top_Assy
  10
0.5451
  20
0.5076
  42
1
  0
VERTEX
  8
Top_Assy
  10
0.5431
  20
0.5076
  42
1
  0
SEQEND
  0
POLYLINE
  8
Top_Assy
  6
CONTINUOUS
  66
1
  70
0
  40
0.002
  41
0.002
  0
VERTEX
  8
Top_Assy
  10
0.5431
  20
0.5357
  42
1
  0
VERTEX
  8
Top_Assy
  10
0.5451
  20
0.5357
  42
1
  0
VERTEX
  8
Top_Assy
  10
0.5431
  20
0.5357
  42
1
  0
SEQEND
  0
SOLID
  8
Top_Assy
  10
0.5831
  20
0.1055
  11
0.5635
  21
0.1055
  12
0.5831
  22
0.0681
  13
0.5635
  23
0.0681
  0
SOLID
  8
Top_Assy
  10
0.6291
  20
0.1055
  11
0.6095
  21
0.1055
  12
0.6291
  22
0.0681
  13
0.6095
  23
0.0681
  0
POLYLINE
  8
Top_Assy
  6
CONTINUOUS
  66
1
  70
0
  40
0.004
  41
0.004
  0
VERTEX
  8
Top_Assy
  10
0.5824
  20
0.1036
  42
0
  0
VERTEX
  8
Top_Assy
  10
0.6105
  20
0.1036
  42
0
  0
SEQEND
  0
POLYLINE
  8
Top_Assy
  6
CONTINUOUS
  66
1
  70
0
  40
0.002
  41
0.002
  0
VERTEX
  8
Top_Assy
  10
0.5814
  20
0.1036
  42
1
  0
VERTEX
  8
Top_Assy
  10
0.5834
  20
0.1036
  42
1
  0
VERTEX
  8
Top_Assy
  10
0.5814
  20
0.1036
  42
1
  0
SEQEND
  0
POLYLINE
  8
Top_Assy
  6
CONTINUOUS
  66
1
  70
0
  40
0.002
  41
0.002
  0
VERTEX
  8
Top_Assy
  10
0.6095
  20
0.1036
  42
1
  0
VERTEX
  8
Top_Assy
  10
0.6115
  20
0.1036
  42
1
  0
VERTEX
  8
Top_Assy
  10
0.6095
  20
0.1036
  42
1
  0
SEQEND
  0
POLYLINE
  8
Top_Assy
  6
CONTINUOUS
  66
1
  70
0
  40
0.004
  41
0.004
  0
VERTEX
  8
Top_Assy
  10
0.5824
  20
0.0701
  42
0
  0
VERTEX
  8
Top_Assy
  10
0.6105
  20
0.0701
  42
0
  0
SEQEND
  0
POLYLINE
  8
Top_Assy
  6
CONTINUOUS
  66
1
  70
0
  40
0.002
  41
0.002
  0
VERTEX
  8
Top_Assy
  10
0.5814
  20
0.0701
  42
1
  0
VERTEX
  8
Top_Assy
  10
0.5834
  20
0.0701
  42
1
  0
VERTEX
  8
Top_Assy
  10
0.5814
  20
0.0701
  42
1
  0
SEQEND
  0
POLYLINE
  8
Top_Assy
  6
CONTINUOUS
  66
1
  70
0
  40
0.002
  41
0.002
  0
VERTEX
  8
Top_Assy
  10
0.6095
  20
0.0701
  42
1
  0
VERTEX
  8
Top_Assy
  10
0.6115
  20
0.0701
  42
1
  0
VERTEX
  8
Top_Assy
  10
0.6095
  20
0.0701
  42
1
  0
SEQEND
  0
SOLID
  8
Top_Assy
  10
0.561
  20
0.2854
  11
0.5414
  21
0.2854
  12
0.561
  22
0.2598
  13
0.5414
  23
0.2598
  0
SOLID
  8
Top_Assy
  10
0.5984
  20
0.2854
  11
0.5788
  21
0.2854
  12
0.5984
  22
0.2598
  13
0.5788
  23
0.2598
  0
SOLID
  8
Top_Assy
  10
0.6358
  20
0.2854
  11
0.6162
  21
0.2854
  12
0.6358
  22
0.2598
  13
0.6162
  23
0.2598
  0
SOLID
  8
Top_Assy
  10
0.6358
  20
0.378
  11
0.6162
  21
0.378
  12
0.6358
  22
0.3524
  13
0.6162
  23
0.3524
  0
SOLID
  8
Top_Assy
  10
0.561
  20
0.378
  11
0.5414
  21
0.378
  12
0.561
  22
0.3524
  13
0.5414
  23
0.3524
  0
POLYLINE
  8
Top_Assy
  6
CONTINUOUS
  66
1
  70
0
  40
0.006
  41
0.006
  0
VERTEX
  8
Top_Assy
  10
0.6437
  20
0.2874
  42
0
  0
VERTEX
  8
Top_Assy
  10
0.5335
  20
0.2874
  42
0
  0
SEQEND
  0
POLYLINE
  8
Top_Assy
  6
CONTINUOUS
  66
1
  70
0
  40
0.003
  41
0.003
  0
VERTEX
  8
Top_Assy
  10
0.6422
  20
0.2874
  42
1
  0
VERTEX
  8
Top_Assy
  10
0.6452
  20
0.2874
  42
1
  0
VERTEX
  8
Top_Assy
  10
0.6422
  20
0.2874
  42
1
  0
SEQEND
  0
POLYLINE
  8
Top_Assy
  6
CONTINUOUS
  66
1
  70
0
  40
0.003
  41
0.003
  0
VERTEX
  8
Top_Assy
  10
0.532
  20
0.2874
  42
1
  0
VERTEX
  8
Top_Assy
  10
0.535
  20
0.2874
  42
1
  0
VERTEX
  8
Top_Assy
  10
0.532
  20
0.2874
  42
1
  0
SEQEND
  0
POLYLINE
  8
Top_Assy
  6
CONTINUOUS
  66
1
  70
0
  40
0.006
  41
0.006
  0
VERTEX
  8
Top_Assy
  10
0.5335
  20
0.3504
  42
0
  0
VERTEX
  8
Top_Assy
  10
0.6437
  20
0.3504
  42
0
  0
SEQEND
  0
POLYLINE
  8
Top_Assy
  6
CONTINUOUS
  66
1
  70
0
  40
0.003
  41
0.003
  0
VERTEX
  8
Top_Assy
  10
0.532
  20
0.3504
  42
1
  0
VERTEX
  8
Top_Assy
  10
0.535
  20
0.3504
  42
1
  0
VERTEX
  8
Top_Assy
  10
0.532
  20
0.3504
  42
1
  0
SEQEND
  0
POLYLINE
  8
Top_Assy
  6
CONTINUOUS
  66
1
  70
0
  40
0.003
  41
0.003
  0
VERTEX
  8
Top_Assy
  10
0.6422
  20
0.3504
  42
1
  0
VERTEX
  8
Top_Assy
  10
0.6452
  20
0.3504
  42
1
  0
VERTEX
  8
Top_Assy
  10
0.6422
  20
0.3504
  42
1
  0
SEQEND
  0
POLYLINE
  8
Top_Assy
  6
CONTINUOUS
  66
1
  70
0
  40
0.006
  41
0.006
  0
VERTEX
  8
Top_Assy
  10
0.6437
  20
0.3504
  42
0
  0
VERTEX
  8
Top_Assy
  10
0.6437
  20
0.2874
  42
0
  0
SEQEND
  0
POLYLINE
  8
Top_Assy
  6
CONTINUOUS
  66
1
  70
0
  40
0.003
  41
0.003
  0
VERTEX
  8
Top_Assy
  10
0.6422
  20
0.3504
  42
1
  0
VERTEX
  8
Top_Assy
  10
0.6452
  20
0.3504
  42
1
  0
VERTEX
  8
Top_Assy
  10
0.6422
  20
0.3504
  42
1
  0
SEQEND
  0
POLYLINE
  8
Top_Assy
  6
CONTINUOUS
  66
1
  70
0
  40
0.003
  41
0.003
  0
VERTEX
  8
Top_Assy
  10
0.6422
  20
0.2874
  42
1
  0
VERTEX
  8
Top_Assy
  10
0.6452
  20
0.2874
  42
1
  0
VERTEX
  8
Top_Assy
  10
0.6422
  20
0.2874
  42
1
  0
SEQEND
  0
POLYLINE
  8
Top_Assy
  6
CONTINUOUS
  66
1
  70
0
  40
0.006
  41
0.006
  0
VERTEX
  8
Top_Assy
  10
0.5335
  20
0.3504
  42
0
  0
VERTEX
  8
Top_Assy
  10
0.5335
  20
0.2874
  42
0
  0
SEQEND
  0
POLYLINE
  8
Top_Assy
  6
CONTINUOUS
  66
1
  70
0
  40
0.003
  41
0.003
  0
VERTEX
  8
Top_Assy
  10
0.532
  20
0.3504
  42
1
  0
VERTEX
  8
Top_Assy
  10
0.535
  20
0.3504
  42
1
  0
VERTEX
  8
Top_Assy
  10
0.532
  20
0.3504
  42
1
  0
SEQEND
  0
POLYLINE
  8
Top_Assy
  6
CONTINUOUS
  66
1
  70
0
  40
0.003
  41
0.003
  0
VERTEX
  8
Top_Assy
  10
0.532
  20
0.2874
  42
1
  0
VERTEX
  8
Top_Assy
  10
0.535
  20
0.2874
  42
1
  0
VERTEX
  8
Top_Assy
  10
0.532
  20
0.2874
  42
1
  0
SEQEND
  0
POLYLINE
  8
Top_Assy
  6
CONTINUOUS
  66
1
  70
0
  40
0.005
  41
0.005
  0
VERTEX
  8
Top_Assy
  10
0.4665
  20
0.372
  42
0
  0
VERTEX
  8
Top_Assy
  10
0.4665
  20
0.2264
  42
0
  0
SEQEND
  0
POLYLINE
  8
Top_Assy
  6
CONTINUOUS
  66
1
  70
0
  40
0.0025
  41
0.0025
  0
VERTEX
  8
Top_Assy
  10
0.4653
  20
0.372
  42
1
  0
VERTEX
  8
Top_Assy
  10
0.4678
  20
0.372
  42
1
  0
VERTEX
  8
Top_Assy
  10
0.4653
  20
0.372
  42
1
  0
SEQEND
  0
POLYLINE
  8
Top_Assy
  6
CONTINUOUS
  66
1
  70
0
  40
0.0025
  41
0.0025
  0
VERTEX
  8
Top_Assy
  10
0.4653
  20
0.2264
  42
1
  0
VERTEX
  8
Top_Assy
  10
0.4678
  20
0.2264
  42
1
  0
VERTEX
  8
Top_Assy
  10
0.4653
  20
0.2264
  42
1
  0
SEQEND
  0
POLYLINE
  8
Top_Assy
  6
CONTINUOUS
  66
1
  70
0
  40
0.005
  41
0.005
  0
VERTEX
  8
Top_Assy
  10
0.4606
  20
0.2205
  42
0
  0
VERTEX
  8
Top_Assy
  10
0.3268
  20
0.2205
  42
0
  0
SEQEND
  0
POLYLINE
  8
Top_Assy
  6
CONTINUOUS
  66
1
  70
0
  40
0.0025
  41
0.0025
  0
VERTEX
  8
Top_Assy
  10
0.4594
  20
0.2205
  42
1
  0
VERTEX
  8
Top_Assy
  10
0.4619
  20
0.2205
  42
1
  0
VERTEX
  8
Top_Assy
  10
0.4594
  20
0.2205
  42
1
  0
SEQEND
  0
POLYLINE
  8
Top_Assy
  6
CONTINUOUS
  66
1
  70
0
  40
0.0025
  41
0.0025
  0
VERTEX
  8
Top_Assy
  10
0.3255
  20
0.2205
  42
1
  0
VERTEX
  8
Top_Assy
  10
0.328
  20
0.2205
  42
1
  0
VERTEX
  8
Top_Assy
  10
0.3255
  20
0.2205
  42
1
  0
SEQEND
  0
POLYLINE
  8
Top_Assy
  6
CONTINUOUS
  66
1
  70
0
  40
0.005
  41
0.005
  0
VERTEX
  8
Top_Assy
  10
0.3209
  20
0.2264
  42
0
  0
VERTEX
  8
Top_Assy
  10
0.3209
  20
0.372
  42
0
  0
SEQEND
  0
POLYLINE
  8
Top_Assy
  6
CONTINUOUS
  66
1
  70
0
  40
0.0025
  41
0.0025
  0
VERTEX
  8
Top_Assy
  10
0.3196
  20
0.2264
  42
1
  0
VERTEX
  8
Top_Assy
  10
0.3221
  20
0.2264
  42
1
  0
VERTEX
  8
Top_Assy
  10
0.3196
  20
0.2264
  42
1
  0
SEQEND
  0
POLYLINE
  8
Top_Assy
  6
CONTINUOUS
  66
1
  70
0
  40
0.0025
  41
0.0025
  0
VERTEX
  8
Top_Assy
  10
0.3196
  20
0.372
  42
1
  0
VERTEX
  8
Top_Assy
  10
0.3221
  20
0.372
  42
1
  0
VERTEX
  8
Top_Assy
  10
0.3196
  20
0.372
  42
1
  0
SEQEND
  0
POLYLINE
  8
Top_Assy
  6
CONTINUOUS
  66
1
  70
0
  40
0.005
  41
0.005
  0
VERTEX
  8
Top_Assy
  10
0.3268
  20
0.378
  42
0
  0
VERTEX
  8
Top_Assy
  10
0.4606
  20
0.378
  42
0
  0
SEQEND
  0
POLYLINE
  8
Top_Assy
  6
CONTINUOUS
  66
1
  70
0
  40
0.0025
  41
0.0025
  0
VERTEX
  8
Top_Assy
  10
0.3255
  20
0.378
  42
1
  0
VERTEX
  8
Top_Assy
  10
0.328
  20
0.378
  42
1
  0
VERTEX
  8
Top_Assy
  10
0.3255
  20
0.378
  42
1
  0
SEQEND
  0
POLYLINE
  8
Top_Assy
  6
CONTINUOUS
  66
1
  70
0
  40
0.0025
  41
0.0025
  0
VERTEX
  8
Top_Assy
  10
0.4594
  20
0.378
  42
1
  0
VERTEX
  8
Top_Assy
  10
0.4619
  20
0.378
  42
1
  0
VERTEX
  8
Top_Assy
  10
0.4594
  20
0.378
  42
1
  0
SEQEND
  0
POLYLINE
  8
Top_Assy
  6
CONTINUOUS
  66
1
  70
0
  40
0.005
  41
0.005
  0
VERTEX
  8
Top_Assy
  10
0.4606
  20
0.378
  42
0
  0
VERTEX
  8
Top_Assy
  10
0.4608
  20
0.3775
  42
0
  0
VERTEX
  8
Top_Assy
  10
0.4609
  20
0.3771
  42
0
  0
VERTEX
  8
Top_Assy
  10
0.4611
  20
0.3767
  42
0
  0
VERTEX
  8
Top_Assy
  10
0.4613
  20
0.3763
  42
0
  0
VERTEX
  8
Top_Assy
  10
0.4615
  20
0.376
  42
0
  0
VERTEX
  8
Top_Assy
  10
0.4617
  20
0.3756
  42
0
  0
VERTEX
  8
Top_Assy
  10
0.462
  20
0.3752
  42
0
  0
VERTEX
  8
Top_Assy
  10
0.4623
  20
0.3749
  42
0
  0
VERTEX
  8
Top_Assy
  10
0.4625
  20
0.3746
  42
0
  0
VERTEX
  8
Top_Assy
  10
0.4628
  20
0.3743
  42
0
  0
VERTEX
  8
Top_Assy
  10
0.4631
  20
0.374
  42
0
  0
VERTEX
  8
Top_Assy
  10
0.4635
  20
0.3737
  42
0
  0
VERTEX
  8
Top_Assy
  10
0.4638
  20
0.3734
  42
0
  0
VERTEX
  8
Top_Assy
  10
0.4642
  20
0.3732
  42
0
  0
VERTEX
  8
Top_Assy
  10
0.4645
  20
0.3729
  42
0
  0
VERTEX
  8
Top_Assy
  10
0.4649
  20
0.3727
  42
0
  0
VERTEX
  8
Top_Assy
  10
0.4653
  20
0.3725
  42
0
  0
VERTEX
  8
Top_Assy
  10
0.4657
  20
0.3723
  42
0
  0
VERTEX
  8
Top_Assy
  10
0.4661
  20
0.3722
  42
0
  0
VERTEX
  8
Top_Assy
  10
0.4665
  20
0.372
  42
0
  0
SEQEND
  0
POLYLINE
  8
Top_Assy
  6
CONTINUOUS
  66
1
  70
0
  40
0.0025
  41
0.0025
  0
VERTEX
  8
Top_Assy
  10
0.4653
  20
0.372
  42
1
  0
VERTEX
  8
Top_Assy
  10
0.4678
  20
0.372
  42
1
  0
VERTEX
  8
Top_Assy
  10
0.4653
  20
0.372
  42
1
  0
SEQEND
  0
POLYLINE
  8
Top_Assy
  6
CONTINUOUS
  66
1
  70
0
  40
0.0025
  41
0.0025
  0
VERTEX
  8
Top_Assy
  10
0.4594
  20
0.378
  42
1
  0
VERTEX
  8
Top_Assy
  10
0.4619
  20
0.378
  42
1
  0
VERTEX
  8
Top_Assy
  10
0.4594
  20
0.378
  42
1
  0
SEQEND
  0
POLYLINE
  8
Top_Assy
  6
CONTINUOUS
  66
1
  70
0
  40
0.005
  41
0.005
  0
VERTEX
  8
Top_Assy
  10
0.3209
  20
0.372
  42
0
  0
VERTEX
  8
Top_Assy
  10
0.3213
  20
0.3722
  42
0
  0
VERTEX
  8
Top_Assy
  10
0.3217
  20
0.3723
  42
0
  0
VERTEX
  8
Top_Assy
  10
0.3221
  20
0.3725
  42
0
  0
VERTEX
  8
Top_Assy
  10
0.3225
  20
0.3727
  42
0
  0
VERTEX
  8
Top_Assy
  10
0.3229
  20
0.3729
  42
0
  0
VERTEX
  8
Top_Assy
  10
0.3232
  20
0.3732
  42
0
  0
VERTEX
  8
Top_Assy
  10
0.3236
  20
0.3734
  42
0
  0
VERTEX
  8
Top_Assy
  10
0.3239
  20
0.3737
  42
0
  0
VERTEX
  8
Top_Assy
  10
0.3243
  20
0.374
  42
0
  0
VERTEX
  8
Top_Assy
  10
0.3246
  20
0.3743
  42
0
  0
VERTEX
  8
Top_Assy
  10
0.3249
  20
0.3746
  42
0
  0
VERTEX
  8
Top_Assy
  10
0.3252
  20
0.3749
  42
0
  0
VERTEX
  8
Top_Assy
  10
0.3254
  20
0.3752
  42
0
  0
VERTEX
  8
Top_Assy
  10
0.3257
  20
0.3756
  42
0
  0
VERTEX
  8
Top_Assy
  10
0.3259
  20
0.376
  42
0
  0
VERTEX
  8
Top_Assy
  10
0.3261
  20
0.3763
  42
0
  0
VERTEX
  8
Top_Assy
  10
0.3263
  20
0.3767
  42
0
  0
VERTEX
  8
Top_Assy
  10
0.3265
  20
0.3771
  42
0
  0
VERTEX
  8
Top_Assy
  10
0.3266
  20
0.3775
  42
0
  0
VERTEX
  8
Top_Assy
  10
0.3268
  20
0.378
  42
0
  0
SEQEND
  0
POLYLINE
  8
Top_Assy
  6
CONTINUOUS
  66
1
  70
0
  40
0.0025
  41
0.0025
  0
VERTEX
  8
Top_Assy
  10
0.3255
  20
0.378
  42
1
  0
VERTEX
  8
Top_Assy
  10
0.328
  20
0.378
  42
1
  0
VERTEX
  8
Top_Assy
  10
0.3255
  20
0.378
  42
1
  0
SEQEND
  0
POLYLINE
  8
Top_Assy
  6
CONTINUOUS
  66
1
  70
0
  40
0.0025
  41
0.0025
  0
VERTEX
  8
Top_Assy
  10
0.3196
  20
0.372
  42
1
  0
VERTEX
  8
Top_Assy
  10
0.3221
  20
0.372
  42
1
  0
VERTEX
  8
Top_Assy
  10
0.3196
  20
0.372
  42
1
  0
SEQEND
  0
POLYLINE
  8
Top_Assy
  6
CONTINUOUS
  66
1
  70
0
  40
0.005
  41
0.005
  0
VERTEX
  8
Top_Assy
  10
0.3268
  20
0.2205
  42
0
  0
VERTEX
  8
Top_Assy
  10
0.3266
  20
0.2209
  42
0
  0
VERTEX
  8
Top_Assy
  10
0.3265
  20
0.2213
  42
0
  0
VERTEX
  8
Top_Assy
  10
0.3263
  20
0.2217
  42
0
  0
VERTEX
  8
Top_Assy
  10
0.3261
  20
0.2221
  42
0
  0
VERTEX
  8
Top_Assy
  10
0.3259
  20
0.2225
  42
0
  0
VERTEX
  8
Top_Assy
  10
0.3257
  20
0.2228
  42
0
  0
VERTEX
  8
Top_Assy
  10
0.3254
  20
0.2232
  42
0
  0
VERTEX
  8
Top_Assy
  10
0.3252
  20
0.2235
  42
0
  0
VERTEX
  8
Top_Assy
  10
0.3249
  20
0.2239
  42
0
  0
VERTEX
  8
Top_Assy
  10
0.3246
  20
0.2242
  42
0
  0
VERTEX
  8
Top_Assy
  10
0.3243
  20
0.2245
  42
0
  0
VERTEX
  8
Top_Assy
  10
0.3239
  20
0.2248
  42
0
  0
VERTEX
  8
Top_Assy
  10
0.3236
  20
0.225
  42
0
  0
VERTEX
  8
Top_Assy
  10
0.3232
  20
0.2253
  42
0
  0
VERTEX
  8
Top_Assy
  10
0.3229
  20
0.2255
  42
0
  0
VERTEX
  8
Top_Assy
  10
0.3225
  20
0.2257
  42
0
  0
VERTEX
  8
Top_Assy
  10
0.3221
  20
0.2259
  42
0
  0
VERTEX
  8
Top_Assy
  10
0.3217
  20
0.2261
  42
0
  0
VERTEX
  8
Top_Assy
  10
0.3213
  20
0.2262
  42
0
  0
VERTEX
  8
Top_Assy
  10
0.3209
  20
0.2264
  42
0
  0
SEQEND
  0
POLYLINE
  8
Top_Assy
  6
CONTINUOUS
  66
1
  70
0
  40
0.0025
  41
0.0025
  0
VERTEX
  8
Top_Assy
  10
0.3196
  20
0.2264
  42
1
  0
VERTEX
  8
Top_Assy
  10
0.3221
  20
0.2264
  42
1
  0
VERTEX
  8
Top_Assy
  10
0.3196
  20
0.2264
  42
1
  0
SEQEND
  0
POLYLINE
  8
Top_Assy
  6
CONTINUOUS
  66
1
  70
0
  40
0.0025
  41
0.0025
  0
VERTEX
  8
Top_Assy
  10
0.3255
  20
0.2205
  42
1
  0
VERTEX
  8
Top_Assy
  10
0.328
  20
0.2205
  42
1
  0
VERTEX
  8
Top_Assy
  10
0.3255
  20
0.2205
  42
1
  0
SEQEND
  0
POLYLINE
  8
Top_Assy
  6
CONTINUOUS
  66
1
  70
0
  40
0.005
  41
0.005
  0
VERTEX
  8
Top_Assy
  10
0.4665
  20
0.2264
  42
0
  0
VERTEX
  8
Top_Assy
  10
0.4661
  20
0.2262
  42
0
  0
VERTEX
  8
Top_Assy
  10
0.4657
  20
0.2261
  42
0
  0
VERTEX
  8
Top_Assy
  10
0.4653
  20
0.2259
  42
0
  0
VERTEX
  8
Top_Assy
  10
0.4649
  20
0.2257
  42
0
  0
VERTEX
  8
Top_Assy
  10
0.4645
  20
0.2255
  42
0
  0
VERTEX
  8
Top_Assy
  10
0.4642
  20
0.2253
  42
0
  0
VERTEX
  8
Top_Assy
  10
0.4638
  20
0.225
  42
0
  0
VERTEX
  8
Top_Assy
  10
0.4635
  20
0.2248
  42
0
  0
VERTEX
  8
Top_Assy
  10
0.4631
  20
0.2245
  42
0
  0
VERTEX
  8
Top_Assy
  10
0.4628
  20
0.2242
  42
0
  0
VERTEX
  8
Top_Assy
  10
0.4625
  20
0.2239
  42
0
  0
VERTEX
  8
Top_Assy
  10
0.4622
  20
0.2235
  42
0
  0
VERTEX
  8
Top_Assy
  10
0.462
  20
0.2232
  42
0
  0
VERTEX
  8
Top_Assy
  10
0.4617
  20
0.2228
  42
0
  0
VERTEX
  8
Top_Assy
  10
0.4615
  20
0.2225
  42
0
  0
VERTEX
  8
Top_Assy
  10
0.4613
  20
0.2221
  42
0
  0
VERTEX
  8
Top_Assy
  10
0.4611
  20
0.2217
  42
0
  0
VERTEX
  8
Top_Assy
  10
0.4609
  20
0.2213
  42
0
  0
VERTEX
  8
Top_Assy
  10
0.4608
  20
0.2209
  42
0
  0
VERTEX
  8
Top_Assy
  10
0.4606
  20
0.2205
  42
0
  0
SEQEND
  0
POLYLINE
  8
Top_Assy
  6
CONTINUOUS
  66
1
  70
0
  40
0.0025
  41
0.0025
  0
VERTEX
  8
Top_Assy
  10
0.4594
  20
0.2205
  42
1
  0
VERTEX
  8
Top_Assy
  10
0.4619
  20
0.2205
  42
1
  0
VERTEX
  8
Top_Assy
  10
0.4594
  20
0.2205
  42
1
  0
SEQEND
  0
POLYLINE
  8
Top_Assy
  6
CONTINUOUS
  66
1
  70
0
  40
0.0025
  41
0.0025
  0
VERTEX
  8
Top_Assy
  10
0.4653
  20
0.2264
  42
1
  0
VERTEX
  8
Top_Assy
  10
0.4678
  20
0.2264
  42
1
  0
VERTEX
  8
Top_Assy
  10
0.4653
  20
0.2264
  42
1
  0
SEQEND
  0
POLYLINE
  8
Top_Assy
  6
CONTINUOUS
  66
1
  70
0
  40
0.0013
  41
0.0013
  0
VERTEX
  8
Top_Assy
  10
0.0
  20
0.6693
  42
0
  0
VERTEX
  8
Top_Assy
  10
0.7087
  20
0.6693
  42
0
  0
VERTEX
  8
Top_Assy
  10
0.7087
  20
0.0
  42
0
  0
VERTEX
  8
Top_Assy
  10
0.0
  20
0.0
  42
0
  0
VERTEX
  8
Top_Assy
  10
0.0
  20
0.6693
  42
0
  0
SEQEND
  0
POLYLINE
  8
Top_Silk
  6
CONTINUOUS
  66
1
  70
0
  40
0.008
  41
0.008
  0
VERTEX
  8
Top_Silk
  10
0.5925
  20
0.5591
  42
0
  0
VERTEX
  8
Top_Silk
  10
0.5689
  20
0.5591
  42
0
  0
SEQEND
  0
POLYLINE
  8
Top_Silk
  6
CONTINUOUS
  66
1
  70
0
  40
0.004
  41
0.004
  0
VERTEX
  8
Top_Silk
  10
0.5905
  20
0.5591
  42
1
  0
VERTEX
  8
Top_Silk
  10
0.5945
  20
0.5591
  42
1
  0
VERTEX
  8
Top_Silk
  10
0.5905
  20
0.5591
  42
1
  0
SEQEND
  0
POLYLINE
  8
Top_Silk
  6
CONTINUOUS
  66
1
  70
0
  40
0.004
  41
0.004
  0
VERTEX
  8
Top_Silk
  10
0.5669
  20
0.5591
  42
1
  0
VERTEX
  8
Top_Silk
  10
0.5709
  20
0.5591
  42
1
  0
VERTEX
  8
Top_Silk
  10
0.5669
  20
0.5591
  42
1
  0
SEQEND
  0
POLYLINE
  8
Top_Silk
  6
CONTINUOUS
  66
1
  70
0
  40
0.008
  41
0.008
  0
VERTEX
  8
Top_Silk
  10
0.5689
  20
0.5591
  42
0
  0
VERTEX
  8
Top_Silk
  10
0.5689
  20
0.5276
  42
0
  0
SEQEND
  0
POLYLINE
  8
Top_Silk
  6
CONTINUOUS
  66
1
  70
0
  40
0.004
  41
0.004
  0
VERTEX
  8
Top_Silk
  10
0.5669
  20
0.5591
  42
1
  0
VERTEX
  8
Top_Silk
  10
0.5709
  20
0.5591
  42
1
  0
VERTEX
  8
Top_Silk
  10
0.5669
  20
0.5591
  42
1
  0
SEQEND
  0
POLYLINE
  8
Top_Silk
  6
CONTINUOUS
  66
1
  70
0
  40
0.004
  41
0.004
  0
VERTEX
  8
Top_Silk
  10
0.5669
  20
0.5276
  42
1
  0
VERTEX
  8
Top_Silk
  10
0.5709
  20
0.5276
  42
1
  0
VERTEX
  8
Top_Silk
  10
0.5669
  20
0.5276
  42
1
  0
SEQEND
  0
POLYLINE
  8
Top_Silk
  6
CONTINUOUS
  66
1
  70
0
  40
0.008
  41
0.008
  0
VERTEX
  8
Top_Silk
  10
0.6555
  20
0.5591
  42
0
  0
VERTEX
  8
Top_Silk
  10
0.6791
  20
0.5591
  42
0
  0
SEQEND
  0
POLYLINE
  8
Top_Silk
  6
CONTINUOUS
  66
1
  70
0
  40
0.004
  41
0.004
  0
VERTEX
  8
Top_Silk
  10
0.6535
  20
0.5591
  42
1
  0
VERTEX
  8
Top_Silk
  10
0.6575
  20
0.5591
  42
1
  0
VERTEX
  8
Top_Silk
  10
0.6535
  20
0.5591
  42
1
  0
SEQEND
  0
POLYLINE
  8
Top_Silk
  6
CONTINUOUS
  66
1
  70
0
  40
0.004
  41
0.004
  0
VERTEX
  8
Top_Silk
  10
0.6771
  20
0.5591
  42
1
  0
VERTEX
  8
Top_Silk
  10
0.6811
  20
0.5591
  42
1
  0
VERTEX
  8
Top_Silk
  10
0.6771
  20
0.5591
  42
1
  0
SEQEND
  0
POLYLINE
  8
Top_Silk
  6
CONTINUOUS
  66
1
  70
0
  40
0.008
  41
0.008
  0
VERTEX
  8
Top_Silk
  10
0.6791
  20
0.5591
  42
0
  0
VERTEX
  8
Top_Silk
  10
0.6791
  20
0.5276
  42
0
  0
SEQEND
  0
POLYLINE
  8
Top_Silk
  6
CONTINUOUS
  66
1
  70
0
  40
0.004
  41
0.004
  0
VERTEX
  8
Top_Silk
  10
0.6771
  20
0.5591
  42
1
  0
VERTEX
  8
Top_Silk
  10
0.6811
  20
0.5591
  42
1
  0
VERTEX
  8
Top_Silk
  10
0.6771
  20
0.5591
  42
1
  0
SEQEND
  0
POLYLINE
  8
Top_Silk
  6
CONTINUOUS
  66
1
  70
0
  40
0.004
  41
0.004
  0
VERTEX
  8
Top_Silk
  10
0.6771
  20
0.5276
  42
1
  0
VERTEX
  8
Top_Silk
  10
0.6811
  20
0.5276
  42
1
  0
VERTEX
  8
Top_Silk
  10
0.6771
  20
0.5276
  42
1
  0
SEQEND
  0
POLYLINE
  8
Top_Silk
  6
CONTINUOUS
  66
1
  70
0
  40
0.022
  41
0.022
  0
VERTEX
  8
Top_Silk
  10
0.2106
  20
0.239
  42
0
  0
VERTEX
  8
Top_Silk
  10
0.2106
  20
0.2414
  42
0
  0
SEQEND
  0
POLYLINE
  8
Top_Silk
  6
CONTINUOUS
  66
1
  70
0
  40
0.011
  41
0.011
  0
VERTEX
  8
Top_Silk
  10
0.2051
  20
0.239
  42
1
  0
VERTEX
  8
Top_Silk
  10
0.2161
  20
0.239
  42
1
  0
VERTEX
  8
Top_Silk
  10
0.2051
  20
0.239
  42
1
  0
SEQEND
  0
POLYLINE
  8
Top_Silk
  6
CONTINUOUS
  66
1
  70
0
  40
0.011
  41
0.011
  0
VERTEX
  8
Top_Silk
  10
0.2051
  20
0.2414
  42
1
  0
VERTEX
  8
Top_Silk
  10
0.2161
  20
0.2414
  42
1
  0
VERTEX
  8
Top_Silk
  10
0.2051
  20
0.2414
  42
1
  0
SEQEND
  0
POLYLINE
  8
Top_Silk
  6
CONTINUOUS
  66
1
  70
0
  40
0.022
  41
0.022
  0
VERTEX
  8
Top_Silk
  10
0.5965
  20
0.1642
  42
0
  0
VERTEX
  8
Top_Silk
  10
0.5965
  20
0.1666
  42
0
  0
SEQEND
  0
POLYLINE
  8
Top_Silk
  6
CONTINUOUS
  66
1
  70
0
  40
0.011
  41
0.011
  0
VERTEX
  8
Top_Silk
  10
0.591
  20
0.1642
  42
1
  0
VERTEX
  8
Top_Silk
  10
0.602
  20
0.1642
  42
1
  0
VERTEX
  8
Top_Silk
  10
0.591
  20
0.1642
  42
1
  0
SEQEND
  0
POLYLINE
  8
Top_Silk
  6
CONTINUOUS
  66
1
  70
0
  40
0.011
  41
0.011
  0
VERTEX
  8
Top_Silk
  10
0.591
  20
0.1666
  42
1
  0
VERTEX
  8
Top_Silk
  10
0.602
  20
0.1666
  42
1
  0
VERTEX
  8
Top_Silk
  10
0.591
  20
0.1666
  42
1
  0
SEQEND
  0
POLYLINE
  8
Top_Silk
  6
CONTINUOUS
  66
1
  70
0
  40
0.008
  41
0.008
  0
VERTEX
  8
Top_Silk
  10
0.2559
  20
0.3701
  42
0
  0
VERTEX
  8
Top_Silk
  10
0.2559
  20
0.311
  42
0
  0
SEQEND
  0
POLYLINE
  8
Top_Silk
  6
CONTINUOUS
  66
1
  70
0
  40
0.004
  41
0.004
  0
VERTEX
  8
Top_Silk
  10
0.2539
  20
0.3701
  42
1
  0
VERTEX
  8
Top_Silk
  10
0.2579
  20
0.3701
  42
1
  0
VERTEX
  8
Top_Silk
  10
0.2539
  20
0.3701
  42
1
  0
SEQEND
  0
POLYLINE
  8
Top_Silk
  6
CONTINUOUS
  66
1
  70
0
  40
0.004
  41
0.004
  0
VERTEX
  8
Top_Silk
  10
0.2539
  20
0.311
  42
1
  0
VERTEX
  8
Top_Silk
  10
0.2579
  20
0.311
  42
1
  0
VERTEX
  8
Top_Silk
  10
0.2539
  20
0.311
  42
1
  0
SEQEND
  0
POLYLINE
  8
Top_Silk
  6
CONTINUOUS
  66
1
  70
0
  40
0.008
  41
0.008
  0
VERTEX
  8
Top_Silk
  10
0.2559
  20
0.311
  42
0
  0
VERTEX
  8
Top_Silk
  10
0.1614
  20
0.311
  42
0
  0
SEQEND
  0
POLYLINE
  8
Top_Silk
  6
CONTINUOUS
  66
1
  70
0
  40
0.004
  41
0.004
  0
VERTEX
  8
Top_Silk
  10
0.2539
  20
0.311
  42
1
  0
VERTEX
  8
Top_Silk
  10
0.2579
  20
0.311
  42
1
  0
VERTEX
  8
Top_Silk
  10
0.2539
  20
0.311
  42
1
  0
SEQEND
  0
POLYLINE
  8
Top_Silk
  6
CONTINUOUS
  66
1
  70
0
  40
0.004
  41
0.004
  0
VERTEX
  8
Top_Silk
  10
0.1594
  20
0.311
  42
1
  0
VERTEX
  8
Top_Silk
  10
0.1634
  20
0.311
  42
1
  0
VERTEX
  8
Top_Silk
  10
0.1594
  20
0.311
  42
1
  0
SEQEND
  0
POLYLINE
  8
Top_Silk
  6
CONTINUOUS
  66
1
  70
0
  40
0.008
  41
0.008
  0
VERTEX
  8
Top_Silk
  10
0.1614
  20
0.311
  42
0
  0
VERTEX
  8
Top_Silk
  10
0.1614
  20
0.3701
  42
0
  0
SEQEND
  0
POLYLINE
  8
Top_Silk
  6
CONTINUOUS
  66
1
  70
0
  40
0.004
  41
0.004
  0
VERTEX
  8
Top_Silk
  10
0.1594
  20
0.311
  42
1
  0
VERTEX
  8
Top_Silk
  10
0.1634
  20
0.311
  42
1
  0
VERTEX
  8
Top_Silk
  10
0.1594
  20
0.311
  42
1
  0
SEQEND
  0
POLYLINE
  8
Top_Silk
  6
CONTINUOUS
  66
1
  70
0
  40
0.004
  41
0.004
  0
VERTEX
  8
Top_Silk
  10
0.1594
  20
0.3701
  42
1
  0
VERTEX
  8
Top_Silk
  10
0.1634
  20
0.3701
  42
1
  0
VERTEX
  8
Top_Silk
  10
0.1594
  20
0.3701
  42
1
  0
SEQEND
  0
POLYLINE
  8
Top_Silk
  6
CONTINUOUS
  66
1
  70
0
  40
0.008
  41
0.008
  0
VERTEX
  8
Top_Silk
  10
0.2559
  20
0.4488
  42
0
  0
VERTEX
  8
Top_Silk
  10
0.2559
  20
0.4921
  42
0
  0
SEQEND
  0
POLYLINE
  8
Top_Silk
  6
CONTINUOUS
  66
1
  70
0
  40
0.004
  41
0.004
  0
VERTEX
  8
Top_Silk
  10
0.2539
  20
0.4488
  42
1
  0
VERTEX
  8
Top_Silk
  10
0.2579
  20
0.4488
  42
1
  0
VERTEX
  8
Top_Silk
  10
0.2539
  20
0.4488
  42
1
  0
SEQEND
  0
POLYLINE
  8
Top_Silk
  6
CONTINUOUS
  66
1
  70
0
  40
0.004
  41
0.004
  0
VERTEX
  8
Top_Silk
  10
0.2539
  20
0.4921
  42
1
  0
VERTEX
  8
Top_Silk
  10
0.2579
  20
0.4921
  42
1
  0
VERTEX
  8
Top_Silk
  10
0.2539
  20
0.4921
  42
1
  0
SEQEND
  0
POLYLINE
  8
Top_Silk
  6
CONTINUOUS
  66
1
  70
0
  40
0.008
  41
0.008
  0
VERTEX
  8
Top_Silk
  10
0.2559
  20
0.4921
  42
0
  0
VERTEX
  8
Top_Silk
  10
0.2402
  20
0.5079
  42
0
  0
SEQEND
  0
POLYLINE
  8
Top_Silk
  6
CONTINUOUS
  66
1
  70
0
  40
0.004
  41
0.004
  0
VERTEX
  8
Top_Silk
  10
0.2539
  20
0.4921
  42
1
  0
VERTEX
  8
Top_Silk
  10
0.2579
  20
0.4921
  42
1
  0
VERTEX
  8
Top_Silk
  10
0.2539
  20
0.4921
  42
1
  0
SEQEND
  0
POLYLINE
  8
Top_Silk
  6
CONTINUOUS
  66
1
  70
0
  40
0.004
  41
0.004
  0
VERTEX
  8
Top_Silk
  10
0.2382
  20
0.5079
  42
1
  0
VERTEX
  8
Top_Silk
  10
0.2422
  20
0.5079
  42
1
  0
VERTEX
  8
Top_Silk
  10
0.2382
  20
0.5079
  42
1
  0
SEQEND
  0
POLYLINE
  8
Top_Silk
  6
CONTINUOUS
  66
1
  70
0
  40
0.008
  41
0.008
  0
VERTEX
  8
Top_Silk
  10
0.2402
  20
0.5079
  42
0
  0
VERTEX
  8
Top_Silk
  10
0.1772
  20
0.5079
  42
0
  0
SEQEND
  0
POLYLINE
  8
Top_Silk
  6
CONTINUOUS
  66
1
  70
0
  40
0.004
  41
0.004
  0
VERTEX
  8
Top_Silk
  10
0.2382
  20
0.5079
  42
1
  0
VERTEX
  8
Top_Silk
  10
0.2422
  20
0.5079
  42
1
  0
VERTEX
  8
Top_Silk
  10
0.2382
  20
0.5079
  42
1
  0
SEQEND
  0
POLYLINE
  8
Top_Silk
  6
CONTINUOUS
  66
1
  70
0
  40
0.004
  41
0.004
  0
VERTEX
  8
Top_Silk
  10
0.1752
  20
0.5079
  42
1
  0
VERTEX
  8
Top_Silk
  10
0.1792
  20
0.5079
  42
1
  0
VERTEX
  8
Top_Silk
  10
0.1752
  20
0.5079
  42
1
  0
SEQEND
  0
POLYLINE
  8
Top_Silk
  6
CONTINUOUS
  66
1
  70
0
  40
0.008
  41
0.008
  0
VERTEX
  8
Top_Silk
  10
0.1772
  20
0.5079
  42
0
  0
VERTEX
  8
Top_Silk
  10
0.1614
  20
0.4921
  42
0
  0
SEQEND
  0
POLYLINE
  8
Top_Silk
  6
CONTINUOUS
  66
1
  70
0
  40
0.004
  41
0.004
  0
VERTEX
  8
Top_Silk
  10
0.1752
  20
0.5079
  42
1
  0
VERTEX
  8
Top_Silk
  10
0.1792
  20
0.5079
  42
1
  0
VERTEX
  8
Top_Silk
  10
0.1752
  20
0.5079
  42
1
  0
SEQEND
  0
POLYLINE
  8
Top_Silk
  6
CONTINUOUS
  66
1
  70
0
  40
0.004
  41
0.004
  0
VERTEX
  8
Top_Silk
  10
0.1594
  20
0.4921
  42
1
  0
VERTEX
  8
Top_Silk
  10
0.1634
  20
0.4921
  42
1
  0
VERTEX
  8
Top_Silk
  10
0.1594
  20
0.4921
  42
1
  0
SEQEND
  0
POLYLINE
  8
Top_Silk
  6
CONTINUOUS
  66
1
  70
0
  40
0.008
  41
0.008
  0
VERTEX
  8
Top_Silk
  10
0.1614
  20
0.4921
  42
0
  0
VERTEX
  8
Top_Silk
  10
0.1614
  20
0.4488
  42
0
  0
SEQEND
  0
POLYLINE
  8
Top_Silk
  6
CONTINUOUS
  66
1
  70
0
  40
0.004
  41
0.004
  0
VERTEX
  8
Top_Silk
  10
0.1594
  20
0.4921
  42
1
  0
VERTEX
  8
Top_Silk
  10
0.1634
  20
0.4921
  42
1
  0
VERTEX
  8
Top_Silk
  10
0.1594
  20
0.4921
  42
1
  0
SEQEND
  0
POLYLINE
  8
Top_Silk
  6
CONTINUOUS
  66
1
  70
0
  40
0.004
  41
0.004
  0
VERTEX
  8
Top_Silk
  10
0.1594
  20
0.4488
  42
1
  0
VERTEX
  8
Top_Silk
  10
0.1634
  20
0.4488
  42
1
  0
VERTEX
  8
Top_Silk
  10
0.1594
  20
0.4488
  42
1
  0
SEQEND
  0
POLYLINE
  8
Top_Silk
  6
CONTINUOUS
  66
1
  70
0
  40
0.005
  41
0.005
  0
VERTEX
  8
Top_Silk
  10
0.1687
  20
0.4244
  42
0
  0
VERTEX
  8
Top_Silk
  10
0.2487
  20
0.4244
  42
0
  0
SEQEND
  0
POLYLINE
  8
Top_Silk
  6
CONTINUOUS
  66
1
  70
0
  40
0.0025
  41
0.0025
  0
VERTEX
  8
Top_Silk
  10
0.1674
  20
0.4244
  42
1
  0
VERTEX
  8
Top_Silk
  10
0.1699
  20
0.4244
  42
1
  0
VERTEX
  8
Top_Silk
  10
0.1674
  20
0.4244
  42
1
  0
SEQEND
  0
POLYLINE
  8
Top_Silk
  6
CONTINUOUS
  66
1
  70
0
  40
0.0025
  41
0.0025
  0
VERTEX
  8
Top_Silk
  10
0.2474
  20
0.4244
  42
1
  0
VERTEX
  8
Top_Silk
  10
0.2499
  20
0.4244
  42
1
  0
VERTEX
  8
Top_Silk
  10
0.2474
  20
0.4244
  42
1
  0
SEQEND
  0
POLYLINE
  8
Top_Silk
  6
CONTINUOUS
  66
1
  70
0
  40
0.022
  41
0.022
  0
VERTEX
  8
Top_Silk
  10
0.2901
  20
0.5217
  42
0
  0
VERTEX
  8
Top_Silk
  10
0.2925
  20
0.5217
  42
0
  0
SEQEND
  0
POLYLINE
  8
Top_Silk
  6
CONTINUOUS
  66
1
  70
0
  40
0.011
  41
0.011
  0
VERTEX
  8
Top_Silk
  10
0.2846
  20
0.5217
  42
1
  0
VERTEX
  8
Top_Silk
  10
0.2956
  20
0.5217
  42
1
  0
VERTEX
  8
Top_Silk
  10
0.2846
  20
0.5217
  42
1
  0
SEQEND
  0
POLYLINE
  8
Top_Silk
  6
CONTINUOUS
  66
1
  70
0
  40
0.011
  41
0.011
  0
VERTEX
  8
Top_Silk
  10
0.287
  20
0.5217
  42
1
  0
VERTEX
  8
Top_Silk
  10
0.298
  20
0.5217
  42
1
  0
VERTEX
  8
Top_Silk
  10
0.287
  20
0.5217
  42
1
  0
SEQEND
  0
POLYLINE
  8
Top_Silk
  6
CONTINUOUS
  66
1
  70
0
  40
0.022
  41
0.022
  0
VERTEX
  8
Top_Silk
  10
0.3689
  20
0.5217
  42
0
  0
VERTEX
  8
Top_Silk
  10
0.3713
  20
0.5217
  42
0
  0
SEQEND
  0
POLYLINE
  8
Top_Silk
  6
CONTINUOUS
  66
1
  70
0
  40
0.011
  41
0.011
  0
VERTEX
  8
Top_Silk
  10
0.3634
  20
0.5217
  42
1
  0
VERTEX
  8
Top_Silk
  10
0.3744
  20
0.5217
  42
1
  0
VERTEX
  8
Top_Silk
  10
0.3634
  20
0.5217
  42
1
  0
SEQEND
  0
POLYLINE
  8
Top_Silk
  6
CONTINUOUS
  66
1
  70
0
  40
0.011
  41
0.011
  0
VERTEX
  8
Top_Silk
  10
0.3658
  20
0.5217
  42
1
  0
VERTEX
  8
Top_Silk
  10
0.3768
  20
0.5217
  42
1
  0
VERTEX
  8
Top_Silk
  10
0.3658
  20
0.5217
  42
1
  0
SEQEND
  0
POLYLINE
  8
Top_Silk
  6
CONTINUOUS
  66
1
  70
0
  40
0.0098
  41
0.0098
  0
VERTEX
  8
Top_Silk
  10
0.1091
  20
0.5807
  42
0
  0
VERTEX
  8
Top_Silk
  10
0.0091
  20
0.5807
  42
0
  0
VERTEX
  8
Top_Silk
  10
0.0091
  20
0.0807
  42
0
  0
VERTEX
  8
Top_Silk
  10
0.1091
  20
0.0807
  42
0
  0
VERTEX
  8
Top_Silk
  10
0.1091
  20
0.5807
  42
0
  0
SEQEND
  0
SOLID
  8
Top_Silk
  10
0.4638
  20
0.5127
  11
0.4338
  21
0.5127
  12
0.4638
  22
0.5306
  13
0.4338
  23
0.5306
  0
SOLID
  8
Top_Silk
  10
0.5126
  20
0.5307
  11
0.5426
  21
0.5307
  12
0.5126
  22
0.5127
  13
0.5426
  23
0.5127
  0
SOLID
  8
Top_Silk
  10
0.6055
  20
0.1016
  11
0.5875
  21
0.1016
  12
0.6055
  22
0.0716
  13
0.5875
  23
0.0716
  0
POLYLINE
  8
Top_Silk
  6
CONTINUOUS
  66
1
  70
0
  40
0.008
  41
0.008
  0
VERTEX
  8
Top_Silk
  10
0.6446
  20
0.3358
  42
0
  0
VERTEX
  8
Top_Silk
  10
0.6446
  20
0.302
  42
0
  0
SEQEND
  0
POLYLINE
  8
Top_Silk
  6
CONTINUOUS
  66
1
  70
0
  40
0.004
  41
0.004
  0
VERTEX
  8
Top_Silk
  10
0.6426
  20
0.3358
  42
1
  0
VERTEX
  8
Top_Silk
  10
0.6466
  20
0.3358
  42
1
  0
VERTEX
  8
Top_Silk
  10
0.6426
  20
0.3358
  42
1
  0
SEQEND
  0
POLYLINE
  8
Top_Silk
  6
CONTINUOUS
  66
1
  70
0
  40
0.004
  41
0.004
  0
VERTEX
  8
Top_Silk
  10
0.6426
  20
0.302
  42
1
  0
VERTEX
  8
Top_Silk
  10
0.6466
  20
0.302
  42
1
  0
VERTEX
  8
Top_Silk
  10
0.6426
  20
0.302
  42
1
  0
SEQEND
  0
POLYLINE
  8
Top_Silk
  6
CONTINUOUS
  66
1
  70
0
  40
0.008
  41
0.008
  0
VERTEX
  8
Top_Silk
  10
0.5326
  20
0.302
  42
0
  0
VERTEX
  8
Top_Silk
  10
0.5326
  20
0.3358
  42
0
  0
SEQEND
  0
POLYLINE
  8
Top_Silk
  6
CONTINUOUS
  66
1
  70
0
  40
0.004
  41
0.004
  0
VERTEX
  8
Top_Silk
  10
0.5306
  20
0.302
  42
1
  0
VERTEX
  8
Top_Silk
  10
0.5346
  20
0.302
  42
1
  0
VERTEX
  8
Top_Silk
  10
0.5306
  20
0.302
  42
1
  0
SEQEND
  0
POLYLINE
  8
Top_Silk
  6
CONTINUOUS
  66
1
  70
0
  40
0.004
  41
0.004
  0
VERTEX
  8
Top_Silk
  10
0.5306
  20
0.3358
  42
1
  0
VERTEX
  8
Top_Silk
  10
0.5346
  20
0.3358
  42
1
  0
VERTEX
  8
Top_Silk
  10
0.5306
  20
0.3358
  42
1
  0
SEQEND
  0
POLYLINE
  8
Top_Silk
  6
CONTINUOUS
  66
1
  70
0
  40
0.008
  41
0.008
  0
VERTEX
  8
Top_Silk
  10
0.578
  20
0.3508
  42
0
  0
VERTEX
  8
Top_Silk
  10
0.5991
  20
0.3508
  42
0
  0
SEQEND
  0
POLYLINE
  8
Top_Silk
  6
CONTINUOUS
  66
1
  70
0
  40
0.004
  41
0.004
  0
VERTEX
  8
Top_Silk
  10
0.576
  20
0.3508
  42
1
  0
VERTEX
  8
Top_Silk
  10
0.58
  20
0.3508
  42
1
  0
VERTEX
  8
Top_Silk
  10
0.576
  20
0.3508
  42
1
  0
SEQEND
  0
POLYLINE
  8
Top_Silk
  6
CONTINUOUS
  66
1
  70
0
  40
0.004
  41
0.004
  0
VERTEX
  8
Top_Silk
  10
0.5971
  20
0.3508
  42
1
  0
VERTEX
  8
Top_Silk
  10
0.6011
  20
0.3508
  42
1
  0
VERTEX
  8
Top_Silk
  10
0.5971
  20
0.3508
  42
1
  0
SEQEND
  0
CIRCLE
  8
Top_Silk
  10
0.3524
  20
0.3406
  40
0.0028
  0
POLYLINE
  8
Top_Silk
  6
CONTINUOUS
  66
1
  70
0
  40
0.008
  41
0.008
  0
VERTEX
  8
Top_Silk
  10
0.4016
  20
0.378
  42
0
  0
VERTEX
  8
Top_Silk
  10
0.3858
  20
0.378
  42
0
  0
SEQEND
  0
POLYLINE
  8
Top_Silk
  6
CONTINUOUS
  66
1
  70
0
  40
0.004
  41
0.004
  0
VERTEX
  8
Top_Silk
  10
0.3996
  20
0.378
  42
1
  0
VERTEX
  8
Top_Silk
  10
0.4036
  20
0.378
  42
1
  0
VERTEX
  8
Top_Silk
  10
0.3996
  20
0.378
  42
1
  0
SEQEND
  0
POLYLINE
  8
Top_Silk
  6
CONTINUOUS
  66
1
  70
0
  40
0.004
  41
0.004
  0
VERTEX
  8
Top_Silk
  10
0.3838
  20
0.378
  42
1
  0
VERTEX
  8
Top_Silk
  10
0.3878
  20
0.378
  42
1
  0
VERTEX
  8
Top_Silk
  10
0.3838
  20
0.378
  42
1
  0
SEQEND
  0
POLYLINE
  8
Top_Silk
  6
CONTINUOUS
  66
1
  70
0
  40
0.008
  41
0.008
  0
VERTEX
  8
Top_Silk
  10
0.3858
  20
0.2205
  42
0
  0
VERTEX
  8
Top_Silk
  10
0.4016
  20
0.2205
  42
0
  0
SEQEND
  0
POLYLINE
  8
Top_Silk
  6
CONTINUOUS
  66
1
  70
0
  40
0.004
  41
0.004
  0
VERTEX
  8
Top_Silk
  10
0.3838
  20
0.2205
  42
1
  0
VERTEX
  8
Top_Silk
  10
0.3878
  20
0.2205
  42
1
  0
VERTEX
  8
Top_Silk
  10
0.3838
  20
0.2205
  42
1
  0
SEQEND
  0
POLYLINE
  8
Top_Silk
  6
CONTINUOUS
  66
1
  70
0
  40
0.004
  41
0.004
  0
VERTEX
  8
Top_Silk
  10
0.3996
  20
0.2205
  42
1
  0
VERTEX
  8
Top_Silk
  10
0.4036
  20
0.2205
  42
1
  0
VERTEX
  8
Top_Silk
  10
0.3996
  20
0.2205
  42
1
  0
SEQEND
  0
POLYLINE
  8
Top_Silk
  6
CONTINUOUS
  66
1
  70
0
  40
0.008
  41
0.008
  0
VERTEX
  8
Top_Silk
  10
0.3189
  20
0.2913
  42
0
  0
VERTEX
  8
Top_Silk
  10
0.3189
  20
0.3071
  42
0
  0
SEQEND
  0
POLYLINE
  8
Top_Silk
  6
CONTINUOUS
  66
1
  70
0
  40
0.004
  41
0.004
  0
VERTEX
  8
Top_Silk
  10
0.3169
  20
0.2913
  42
1
  0
VERTEX
  8
Top_Silk
  10
0.3209
  20
0.2913
  42
1
  0
VERTEX
  8
Top_Silk
  10
0.3169
  20
0.2913
  42
1
  0
SEQEND
  0
POLYLINE
  8
Top_Silk
  6
CONTINUOUS
  66
1
  70
0
  40
0.004
  41
0.004
  0
VERTEX
  8
Top_Silk
  10
0.3169
  20
0.3071
  42
1
  0
VERTEX
  8
Top_Silk
  10
0.3209
  20
0.3071
  42
1
  0
VERTEX
  8
Top_Silk
  10
0.3169
  20
0.3071
  42
1
  0
SEQEND
  0
POLYLINE
  8
Top_Silk
  6
CONTINUOUS
  66
1
  70
0
  40
0.008
  41
0.008
  0
VERTEX
  8
Top_Silk
  10
0.4685
  20
0.2913
  42
0
  0
VERTEX
  8
Top_Silk
  10
0.4685
  20
0.3071
  42
0
  0
SEQEND
  0
POLYLINE
  8
Top_Silk
  6
CONTINUOUS
  66
1
  70
0
  40
0.004
  41
0.004
  0
VERTEX
  8
Top_Silk
  10
0.4665
  20
0.2913
  42
1
  0
VERTEX
  8
Top_Silk
  10
0.4705
  20
0.2913
  42
1
  0
VERTEX
  8
Top_Silk
  10
0.4665
  20
0.2913
  42
1
  0
SEQEND
  0
POLYLINE
  8
Top_Silk
  6
CONTINUOUS
  66
1
  70
0
  40
0.004
  41
0.004
  0
VERTEX
  8
Top_Silk
  10
0.4665
  20
0.3071
  42
1
  0
VERTEX
  8
Top_Silk
  10
0.4705
  20
0.3071
  42
1
  0
VERTEX
  8
Top_Silk
  10
0.4665
  20
0.3071
  42
1
  0
SEQEND
  0
POLYLINE
  8
Top_Silk
  6
CONTINUOUS
  66
1
  70
0
  40
0.0046
  41
0.0046
  0
VERTEX
  8
Top_Silk
  10
0.4293
  20
0.6522
  42
0
  0
VERTEX
  8
Top_Silk
  10
0.4293
  20
0.6221
  42
0
  0
VERTEX
  8
Top_Silk
  10
0.4422
  20
0.6221
  42
0
  0
VERTEX
  8
Top_Silk
  10
0.4465
  20
0.6235
  42
0
  0
VERTEX
  8
Top_Silk
  10
0.4479
  20
0.6249
  42
0
  0
VERTEX
  8
Top_Silk
  10
0.4494
  20
0.6278
  42
0
  0
VERTEX
  8
Top_Silk
  10
0.4494
  20
0.6321
  42
0
  0
VERTEX
  8
Top_Silk
  10
0.4479
  20
0.635
  42
0
  0
VERTEX
  8
Top_Silk
  10
0.4465
  20
0.6364
  42
0
  0
VERTEX
  8
Top_Silk
  10
0.4422
  20
0.6378
  42
0
  0
VERTEX
  8
Top_Silk
  10
0.4465
  20
0.6393
  42
0
  0
VERTEX
  8
Top_Silk
  10
0.4479
  20
0.6407
  42
0
  0
VERTEX
  8
Top_Silk
  10
0.4494
  20
0.6436
  42
0
  0
VERTEX
  8
Top_Silk
  10
0.4494
  20
0.6465
  42
0
  0
VERTEX
  8
Top_Silk
  10
0.4479
  20
0.6493
  42
0
  0
VERTEX
  8
Top_Silk
  10
0.4465
  20
0.6508
  42
0
  0
VERTEX
  8
Top_Silk
  10
0.4422
  20
0.6522
  42
0
  0
VERTEX
  8
Top_Silk
  10
0.4293
  20
0.6522
  42
0
  0
SEQEND
  0
POLYLINE
  8
Top_Silk
  6
CONTINUOUS
  66
1
  70
0
  40
0.0023
  41
0.0023
  0
VERTEX
  8
Top_Silk
  10
0.4281
  20
0.6522
  42
1
  0
VERTEX
  8
Top_Silk
  10
0.4304
  20
0.6522
  42
1
  0
VERTEX
  8
Top_Silk
  10
0.4281
  20
0.6522
  42
1
  0
SEQEND
  0
POLYLINE
  8
Top_Silk
  6
CONTINUOUS
  66
1
  70
0
  40
0.0046
  41
0.0046
  0
VERTEX
  8
Top_Silk
  10
0.4293
  20
0.6378
  42
0
  0
VERTEX
  8
Top_Silk
  10
0.4422
  20
0.6378
  42
0
  0
SEQEND
  0
POLYLINE
  8
Top_Silk
  6
CONTINUOUS
  66
1
  70
0
  40
0.0023
  41
0.0023
  0
VERTEX
  8
Top_Silk
  10
0.4281
  20
0.6378
  42
1
  0
VERTEX
  8
Top_Silk
  10
0.4304
  20
0.6378
  42
1
  0
VERTEX
  8
Top_Silk
  10
0.4281
  20
0.6378
  42
1
  0
SEQEND
  0
POLYLINE
  8
Top_Silk
  6
CONTINUOUS
  66
1
  70
0
  40
0.0023
  41
0.0023
  0
VERTEX
  8
Top_Silk
  10
0.441
  20
0.6378
  42
1
  0
VERTEX
  8
Top_Silk
  10
0.4434
  20
0.6378
  42
1
  0
VERTEX
  8
Top_Silk
  10
0.441
  20
0.6378
  42
1
  0
SEQEND
  0
POLYLINE
  8
Top_Silk
  6
CONTINUOUS
  66
1
  70
0
  40
0.0046
  41
0.0046
  0
VERTEX
  8
Top_Silk
  10
0.4787
  20
0.6479
  42
0
  0
VERTEX
  8
Top_Silk
  10
0.4759
  20
0.6508
  42
0
  0
VERTEX
  8
Top_Silk
  10
0.4716
  20
0.6522
  42
0
  0
VERTEX
  8
Top_Silk
  10
0.4658
  20
0.6522
  42
0
  0
VERTEX
  8
Top_Silk
  10
0.4615
  20
0.6508
  42
0
  0
VERTEX
  8
Top_Silk
  10
0.4586
  20
0.6479
  42
0
  0
VERTEX
  8
Top_Silk
  10
0.4586
  20
0.645
  42
0
  0
VERTEX
  8
Top_Silk
  10
0.4601
  20
0.6422
  42
0
  0
VERTEX
  8
Top_Silk
  10
0.4615
  20
0.6407
  42
0
  0
VERTEX
  8
Top_Silk
  10
0.4644
  20
0.6393
  42
0
  0
VERTEX
  8
Top_Silk
  10
0.473
  20
0.6364
  42
0
  0
VERTEX
  8
Top_Silk
  10
0.4759
  20
0.635
  42
0
  0
VERTEX
  8
Top_Silk
  10
0.4773
  20
0.6335
  42
0
  0
VERTEX
  8
Top_Silk
  10
0.4787
  20
0.6307
  42
0
  0
VERTEX
  8
Top_Silk
  10
0.4787
  20
0.6264
  42
0
  0
VERTEX
  8
Top_Silk
  10
0.4759
  20
0.6235
  42
0
  0
VERTEX
  8
Top_Silk
  10
0.4716
  20
0.6221
  42
0
  0
VERTEX
  8
Top_Silk
  10
0.4658
  20
0.6221
  42
0
  0
VERTEX
  8
Top_Silk
  10
0.4615
  20
0.6235
  42
0
  0
VERTEX
  8
Top_Silk
  10
0.4586
  20
0.6264
  42
0
  0
SEQEND
  0
POLYLINE
  8
Top_Silk
  6
CONTINUOUS
  66
1
  70
0
  40
0.0023
  41
0.0023
  0
VERTEX
  8
Top_Silk
  10
0.4776
  20
0.6479
  42
1
  0
VERTEX
  8
Top_Silk
  10
0.4799
  20
0.6479
  42
1
  0
VERTEX
  8
Top_Silk
  10
0.4776
  20
0.6479
  42
1
  0
SEQEND
  0
POLYLINE
  8
Top_Silk
  6
CONTINUOUS
  66
1
  70
0
  40
0.0023
  41
0.0023
  0
VERTEX
  8
Top_Silk
  10
0.4575
  20
0.6264
  42
1
  0
VERTEX
  8
Top_Silk
  10
0.4598
  20
0.6264
  42
1
  0
VERTEX
  8
Top_Silk
  10
0.4575
  20
0.6264
  42
1
  0
SEQEND
  0
POLYLINE
  8
Top_Silk
  6
CONTINUOUS
  66
1
  70
0
  40
0.0046
  41
0.0046
  0
VERTEX
  8
Top_Silk
  10
0.5081
  20
0.6479
  42
0
  0
VERTEX
  8
Top_Silk
  10
0.5052
  20
0.6508
  42
0
  0
VERTEX
  8
Top_Silk
  10
0.5009
  20
0.6522
  42
0
  0
VERTEX
  8
Top_Silk
  10
0.4952
  20
0.6522
  42
0
  0
VERTEX
  8
Top_Silk
  10
0.4909
  20
0.6508
  42
0
  0
VERTEX
  8
Top_Silk
  10
0.488
  20
0.6479
  42
0
  0
VERTEX
  8
Top_Silk
  10
0.488
  20
0.645
  42
0
  0
VERTEX
  8
Top_Silk
  10
0.4894
  20
0.6422
  42
0
  0
VERTEX
  8
Top_Silk
  10
0.4909
  20
0.6407
  42
0
  0
VERTEX
  8
Top_Silk
  10
0.4937
  20
0.6393
  42
0
  0
VERTEX
  8
Top_Silk
  10
0.5023
  20
0.6364
  42
0
  0
VERTEX
  8
Top_Silk
  10
0.5052
  20
0.635
  42
0
  0
VERTEX
  8
Top_Silk
  10
0.5067
  20
0.6335
  42
0
  0
VERTEX
  8
Top_Silk
  10
0.5081
  20
0.6307
  42
0
  0
VERTEX
  8
Top_Silk
  10
0.5081
  20
0.6264
  42
0
  0
VERTEX
  8
Top_Silk
  10
0.5052
  20
0.6235
  42
0
  0
VERTEX
  8
Top_Silk
  10
0.5009
  20
0.6221
  42
0
  0
VERTEX
  8
Top_Silk
  10
0.4952
  20
0.6221
  42
0
  0
VERTEX
  8
Top_Silk
  10
0.4909
  20
0.6235
  42
0
  0
VERTEX
  8
Top_Silk
  10
0.488
  20
0.6264
  42
0
  0
SEQEND
  0
POLYLINE
  8
Top_Silk
  6
CONTINUOUS
  66
1
  70
0
  40
0.0023
  41
0.0023
  0
VERTEX
  8
Top_Silk
  10
0.5069
  20
0.6479
  42
1
  0
VERTEX
  8
Top_Silk
  10
0.5092
  20
0.6479
  42
1
  0
VERTEX
  8
Top_Silk
  10
0.5069
  20
0.6479
  42
1
  0
SEQEND
  0
POLYLINE
  8
Top_Silk
  6
CONTINUOUS
  66
1
  70
0
  40
0.0023
  41
0.0023
  0
VERTEX
  8
Top_Silk
  10
0.4868
  20
0.6264
  42
1
  0
VERTEX
  8
Top_Silk
  10
0.4891
  20
0.6264
  42
1
  0
VERTEX
  8
Top_Silk
  10
0.4868
  20
0.6264
  42
1
  0
SEQEND
  0
POLYLINE
  8
Top_Silk
  6
CONTINUOUS
  66
1
  70
0
  40
0.0046
  41
0.0046
  0
VERTEX
  8
Top_Silk
  10
0.5173
  20
0.6464
  42
0
  0
VERTEX
  8
Top_Silk
  10
0.5202
  20
0.6479
  42
0
  0
VERTEX
  8
Top_Silk
  10
0.5245
  20
0.6522
  42
0
  0
VERTEX
  8
Top_Silk
  10
0.5245
  20
0.6221
  42
0
  0
SEQEND
  0
POLYLINE
  8
Top_Silk
  6
CONTINUOUS
  66
1
  70
0
  40
0.0023
  41
0.0023
  0
VERTEX
  8
Top_Silk
  10
0.5162
  20
0.6464
  42
1
  0
VERTEX
  8
Top_Silk
  10
0.5185
  20
0.6464
  42
1
  0
VERTEX
  8
Top_Silk
  10
0.5162
  20
0.6464
  42
1
  0
SEQEND
  0
POLYLINE
  8
Top_Silk
  6
CONTINUOUS
  66
1
  70
0
  40
0.0023
  41
0.0023
  0
VERTEX
  8
Top_Silk
  10
0.5234
  20
0.6221
  42
1
  0
VERTEX
  8
Top_Silk
  10
0.5257
  20
0.6221
  42
1
  0
VERTEX
  8
Top_Silk
  10
0.5234
  20
0.6221
  42
1
  0
SEQEND
  0
POLYLINE
  8
Top_Silk
  6
CONTINUOUS
  66
1
  70
0
  40
0.0046
  41
0.0046
  0
VERTEX
  8
Top_Silk
  10
0.5367
  20
0.6522
  42
0
  0
VERTEX
  8
Top_Silk
  10
0.5524
  20
0.6522
  42
0
  0
VERTEX
  8
Top_Silk
  10
0.5438
  20
0.6407
  42
0
  0
VERTEX
  8
Top_Silk
  10
0.5482
  20
0.6407
  42
0
  0
VERTEX
  8
Top_Silk
  10
0.551
  20
0.6393
  42
0
  0
VERTEX
  8
Top_Silk
  10
0.5524
  20
0.6378
  42
0
  0
VERTEX
  8
Top_Silk
  10
0.5539
  20
0.6335
  42
0
  0
VERTEX
  8
Top_Silk
  10
0.5539
  20
0.6307
  42
0
  0
VERTEX
  8
Top_Silk
  10
0.5524
  20
0.6264
  42
0
  0
VERTEX
  8
Top_Silk
  10
0.5496
  20
0.6235
  42
0
  0
VERTEX
  8
Top_Silk
  10
0.5453
  20
0.6221
  42
0
  0
VERTEX
  8
Top_Silk
  10
0.541
  20
0.6221
  42
0
  0
VERTEX
  8
Top_Silk
  10
0.5367
  20
0.6235
  42
0
  0
VERTEX
  8
Top_Silk
  10
0.5353
  20
0.6249
  42
0
  0
VERTEX
  8
Top_Silk
  10
0.5338
  20
0.6278
  42
0
  0
SEQEND
  0
POLYLINE
  8
Top_Silk
  6
CONTINUOUS
  66
1
  70
0
  40
0.0023
  41
0.0023
  0
VERTEX
  8
Top_Silk
  10
0.5355
  20
0.6522
  42
1
  0
VERTEX
  8
Top_Silk
  10
0.5378
  20
0.6522
  42
1
  0
VERTEX
  8
Top_Silk
  10
0.5355
  20
0.6522
  42
1
  0
SEQEND
  0
POLYLINE
  8
Top_Silk
  6
CONTINUOUS
  66
1
  70
0
  40
0.0023
  41
0.0023
  0
VERTEX
  8
Top_Silk
  10
0.5326
  20
0.6278
  42
1
  0
VERTEX
  8
Top_Silk
  10
0.535
  20
0.6278
  42
1
  0
VERTEX
  8
Top_Silk
  10
0.5326
  20
0.6278
  42
1
  0
SEQEND
  0
POLYLINE
  8
Top_Silk
  6
CONTINUOUS
  66
1
  70
0
  40
0.0046
  41
0.0046
  0
VERTEX
  8
Top_Silk
  10
0.5703
  20
0.6522
  42
0
  0
VERTEX
  8
Top_Silk
  10
0.566
  20
0.6507
  42
0
  0
VERTEX
  8
Top_Silk
  10
0.5646
  20
0.6479
  42
0
  0
VERTEX
  8
Top_Silk
  10
0.5646
  20
0.645
  42
0
  0
VERTEX
  8
Top_Silk
  10
0.566
  20
0.6422
  42
0
  0
VERTEX
  8
Top_Silk
  10
0.5689
  20
0.6407
  42
0
  0
VERTEX
  8
Top_Silk
  10
0.5746
  20
0.6393
  42
0
  0
VERTEX
  8
Top_Silk
  10
0.5789
  20
0.6378
  42
0
  0
VERTEX
  8
Top_Silk
  10
0.5818
  20
0.635
  42
0
  0
VERTEX
  8
Top_Silk
  10
0.5832
  20
0.6321
  42
0
  0
VERTEX
  8
Top_Silk
  10
0.5832
  20
0.6278
  42
0
  0
VERTEX
  8
Top_Silk
  10
0.5818
  20
0.6249
  42
0
  0
VERTEX
  8
Top_Silk
  10
0.5804
  20
0.6235
  42
0
  0
VERTEX
  8
Top_Silk
  10
0.5761
  20
0.6221
  42
0
  0
VERTEX
  8
Top_Silk
  10
0.5703
  20
0.6221
  42
0
  0
VERTEX
  8
Top_Silk
  10
0.566
  20
0.6235
  42
0
  0
VERTEX
  8
Top_Silk
  10
0.5646
  20
0.6249
  42
0
  0
VERTEX
  8
Top_Silk
  10
0.5632
  20
0.6278
  42
0
  0
VERTEX
  8
Top_Silk
  10
0.5632
  20
0.6321
  42
0
  0
VERTEX
  8
Top_Silk
  10
0.5646
  20
0.635
  42
0
  0
VERTEX
  8
Top_Silk
  10
0.5675
  20
0.6378
  42
0
  0
VERTEX
  8
Top_Silk
  10
0.5717
  20
0.6393
  42
0
  0
VERTEX
  8
Top_Silk
  10
0.5775
  20
0.6407
  42
0
  0
VERTEX
  8
Top_Silk
  10
0.5804
  20
0.6422
  42
0
  0
VERTEX
  8
Top_Silk
  10
0.5818
  20
0.645
  42
0
  0
VERTEX
  8
Top_Silk
  10
0.5818
  20
0.6479
  42
0
  0
VERTEX
  8
Top_Silk
  10
0.5804
  20
0.6507
  42
0
  0
VERTEX
  8
Top_Silk
  10
0.5761
  20
0.6522
  42
0
  0
VERTEX
  8
Top_Silk
  10
0.5703
  20
0.6522
  42
0
  0
SEQEND
  0
POLYLINE
  8
Top_Silk
  6
CONTINUOUS
  66
1
  70
0
  40
0.0023
  41
0.0023
  0
VERTEX
  8
Top_Silk
  10
0.5692
  20
0.6522
  42
1
  0
VERTEX
  8
Top_Silk
  10
0.5715
  20
0.6522
  42
1
  0
VERTEX
  8
Top_Silk
  10
0.5692
  20
0.6522
  42
1
  0
SEQEND
  0
POLYLINE
  8
Top_Silk
  6
CONTINUOUS
  66
1
  70
0
  40
0.0046
  41
0.0046
  0
VERTEX
  8
Top_Silk
  10
0.5925
  20
0.6171
  42
0
  0
VERTEX
  8
Top_Silk
  10
0.6197
  20
0.6171
  42
0
  0
SEQEND
  0
POLYLINE
  8
Top_Silk
  6
CONTINUOUS
  66
1
  70
0
  40
0.0023
  41
0.0023
  0
VERTEX
  8
Top_Silk
  10
0.5913
  20
0.6171
  42
1
  0
VERTEX
  8
Top_Silk
  10
0.5936
  20
0.6171
  42
1
  0
VERTEX
  8
Top_Silk
  10
0.5913
  20
0.6171
  42
1
  0
SEQEND
  0
POLYLINE
  8
Top_Silk
  6
CONTINUOUS
  66
1
  70
0
  40
0.0023
  41
0.0023
  0
VERTEX
  8
Top_Silk
  10
0.6186
  20
0.6171
  42
1
  0
VERTEX
  8
Top_Silk
  10
0.6209
  20
0.6171
  42
1
  0
VERTEX
  8
Top_Silk
  10
0.6186
  20
0.6171
  42
1
  0
SEQEND
  0
POLYLINE
  8
Top_Silk
  6
CONTINUOUS
  66
1
  70
0
  40
0.0046
  41
0.0046
  0
VERTEX
  8
Top_Silk
  10
0.629
  20
0.6464
  42
0
  0
VERTEX
  8
Top_Silk
  10
0.6319
  20
0.6479
  42
0
  0
VERTEX
  8
Top_Silk
  10
0.6362
  20
0.6522
  42
0
  0
VERTEX
  8
Top_Silk
  10
0.6362
  20
0.6221
  42
0
  0
SEQEND
  0
POLYLINE
  8
Top_Silk
  6
CONTINUOUS
  66
1
  70
0
  40
0.0023
  41
0.0023
  0
VERTEX
  8
Top_Silk
  10
0.6278
  20
0.6464
  42
1
  0
VERTEX
  8
Top_Silk
  10
0.6302
  20
0.6464
  42
1
  0
VERTEX
  8
Top_Silk
  10
0.6278
  20
0.6464
  42
1
  0
SEQEND
  0
POLYLINE
  8
Top_Silk
  6
CONTINUOUS
  66
1
  70
0
  40
0.0023
  41
0.0023
  0
VERTEX
  8
Top_Silk
  10
0.635
  20
0.6221
  42
1
  0
VERTEX
  8
Top_Silk
  10
0.6374
  20
0.6221
  42
1
  0
VERTEX
  8
Top_Silk
  10
0.635
  20
0.6221
  42
1
  0
SEQEND
  0
POLYLINE
  8
Top_Silk
  6
CONTINUOUS
  66
1
  70
0
  40
0.0046
  41
0.0046
  0
VERTEX
  8
Top_Silk
  10
0.6455
  20
0.6171
  42
0
  0
VERTEX
  8
Top_Silk
  10
0.6727
  20
0.6171
  42
0
  0
SEQEND
  0
POLYLINE
  8
Top_Silk
  6
CONTINUOUS
  66
1
  70
0
  40
0.0023
  41
0.0023
  0
VERTEX
  8
Top_Silk
  10
0.6443
  20
0.6171
  42
1
  0
VERTEX
  8
Top_Silk
  10
0.6466
  20
0.6171
  42
1
  0
VERTEX
  8
Top_Silk
  10
0.6443
  20
0.6171
  42
1
  0
SEQEND
  0
POLYLINE
  8
Top_Silk
  6
CONTINUOUS
  66
1
  70
0
  40
0.0023
  41
0.0023
  0
VERTEX
  8
Top_Silk
  10
0.6716
  20
0.6171
  42
1
  0
VERTEX
  8
Top_Silk
  10
0.6739
  20
0.6171
  42
1
  0
VERTEX
  8
Top_Silk
  10
0.6716
  20
0.6171
  42
1
  0
SEQEND
  0
POLYLINE
  8
Top_Silk
  6
CONTINUOUS
  66
1
  70
0
  40
0.0046
  41
0.0046
  0
VERTEX
  8
Top_Silk
  10
0.7007
  20
0.6422
  42
0
  0
VERTEX
  8
Top_Silk
  10
0.6992
  20
0.6378
  42
0
  0
VERTEX
  8
Top_Silk
  10
0.6963
  20
0.635
  42
0
  0
VERTEX
  8
Top_Silk
  10
0.692
  20
0.6335
  42
0
  0
VERTEX
  8
Top_Silk
  10
0.6906
  20
0.6335
  42
0
  0
VERTEX
  8
Top_Silk
  10
0.6863
  20
0.635
  42
0
  0
VERTEX
  8
Top_Silk
  10
0.6834
  20
0.6378
  42
0
  0
VERTEX
  8
Top_Silk
  10
0.682
  20
0.6422
  42
0
  0
VERTEX
  8
Top_Silk
  10
0.682
  20
0.6436
  42
0
  0
VERTEX
  8
Top_Silk
  10
0.6834
  20
0.6479
  42
0
  0
VERTEX
  8
Top_Silk
  10
0.6863
  20
0.6507
  42
0
  0
VERTEX
  8
Top_Silk
  10
0.6906
  20
0.6522
  42
0
  0
VERTEX
  8
Top_Silk
  10
0.692
  20
0.6522
  42
0
  0
VERTEX
  8
Top_Silk
  10
0.6963
  20
0.6507
  42
0
  0
VERTEX
  8
Top_Silk
  10
0.6992
  20
0.6479
  42
0
  0
VERTEX
  8
Top_Silk
  10
0.7007
  20
0.6422
  42
0
  0
VERTEX
  8
Top_Silk
  10
0.7007
  20
0.635
  42
0
  0
VERTEX
  8
Top_Silk
  10
0.6992
  20
0.6278
  42
0
  0
VERTEX
  8
Top_Silk
  10
0.6963
  20
0.6235
  42
0
  0
VERTEX
  8
Top_Silk
  10
0.692
  20
0.6221
  42
0
  0
VERTEX
  8
Top_Silk
  10
0.6892
  20
0.6221
  42
0
  0
VERTEX
  8
Top_Silk
  10
0.6849
  20
0.6235
  42
0
  0
VERTEX
  8
Top_Silk
  10
0.6834
  20
0.6264
  42
0
  0
SEQEND
  0
POLYLINE
  8
Top_Silk
  6
CONTINUOUS
  66
1
  70
0
  40
0.0023
  41
0.0023
  0
VERTEX
  8
Top_Silk
  10
0.6995
  20
0.6422
  42
1
  0
VERTEX
  8
Top_Silk
  10
0.7018
  20
0.6422
  42
1
  0
VERTEX
  8
Top_Silk
  10
0.6995
  20
0.6422
  42
1
  0
SEQEND
  0
POLYLINE
  8
Top_Silk
  6
CONTINUOUS
  66
1
  70
0
  40
0.0023
  41
0.0023
  0
VERTEX
  8
Top_Silk
  10
0.6823
  20
0.6264
  42
1
  0
VERTEX
  8
Top_Silk
  10
0.6846
  20
0.6264
  42
1
  0
VERTEX
  8
Top_Silk
  10
0.6823
  20
0.6264
  42
1
  0
SEQEND
  0
POLYLINE
  8
Top_Silk
  6
CONTINUOUS
  66
1
  70
0
  40
0.0046
  41
0.0046
  0
VERTEX
  8
Top_Silk
  10
0.1849
  20
0.2061
  42
0
  0
VERTEX
  8
Top_Silk
  10
0.1834
  20
0.2089
  42
0
  0
VERTEX
  8
Top_Silk
  10
0.1806
  20
0.2118
  42
0
  0
VERTEX
  8
Top_Silk
  10
0.1777
  20
0.2133
  42
0
  0
VERTEX
  8
Top_Silk
  10
0.172
  20
0.2133
  42
0
  0
VERTEX
  8
Top_Silk
  10
0.1691
  20
0.2118
  42
0
  0
VERTEX
  8
Top_Silk
  10
0.1662
  20
0.2089
  42
0
  0
VERTEX
  8
Top_Silk
  10
0.1648
  20
0.2061
  42
0
  0
VERTEX
  8
Top_Silk
  10
0.1633
  20
0.2018
  42
0
  0
VERTEX
  8
Top_Silk
  10
0.1633
  20
0.1946
  42
0
  0
VERTEX
  8
Top_Silk
  10
0.1648
  20
0.1903
  42
0
  0
VERTEX
  8
Top_Silk
  10
0.1662
  20
0.1874
  42
0
  0
VERTEX
  8
Top_Silk
  10
0.1691
  20
0.1846
  42
0
  0
VERTEX
  8
Top_Silk
  10
0.172
  20
0.1831
  42
0
  0
VERTEX
  8
Top_Silk
  10
0.1777
  20
0.1831
  42
0
  0
VERTEX
  8
Top_Silk
  10
0.1806
  20
0.1846
  42
0
  0
VERTEX
  8
Top_Silk
  10
0.1834
  20
0.1874
  42
0
  0
VERTEX
  8
Top_Silk
  10
0.1849
  20
0.1903
  42
0
  0
SEQEND
  0
POLYLINE
  8
Top_Silk
  6
CONTINUOUS
  66
1
  70
0
  40
0.0023
  41
0.0023
  0
VERTEX
  8
Top_Silk
  10
0.1837
  20
0.2061
  42
1
  0
VERTEX
  8
Top_Silk
  10
0.186
  20
0.2061
  42
1
  0
VERTEX
  8
Top_Silk
  10
0.1837
  20
0.2061
  42
1
  0
SEQEND
  0
POLYLINE
  8
Top_Silk
  6
CONTINUOUS
  66
1
  70
0
  40
0.0023
  41
0.0023
  0
VERTEX
  8
Top_Silk
  10
0.1837
  20
0.1903
  42
1
  0
VERTEX
  8
Top_Silk
  10
0.186
  20
0.1903
  42
1
  0
VERTEX
  8
Top_Silk
  10
0.1837
  20
0.1903
  42
1
  0
SEQEND
  0
POLYLINE
  8
Top_Silk
  6
CONTINUOUS
  66
1
  70
0
  40
0.0046
  41
0.0046
  0
VERTEX
  8
Top_Silk
  10
0.1941
  20
0.2075
  42
0
  0
VERTEX
  8
Top_Silk
  10
0.197
  20
0.2089
  42
0
  0
VERTEX
  8
Top_Silk
  10
0.2013
  20
0.2132
  42
0
  0
VERTEX
  8
Top_Silk
  10
0.2013
  20
0.1831
  42
0
  0
SEQEND
  0
POLYLINE
  8
Top_Silk
  6
CONTINUOUS
  66
1
  70
0
  40
0.0023
  41
0.0023
  0
VERTEX
  8
Top_Silk
  10
0.193
  20
0.2075
  42
1
  0
VERTEX
  8
Top_Silk
  10
0.1953
  20
0.2075
  42
1
  0
VERTEX
  8
Top_Silk
  10
0.193
  20
0.2075
  42
1
  0
SEQEND
  0
POLYLINE
  8
Top_Silk
  6
CONTINUOUS
  66
1
  70
0
  40
0.0023
  41
0.0023
  0
VERTEX
  8
Top_Silk
  10
0.2002
  20
0.1831
  42
1
  0
VERTEX
  8
Top_Silk
  10
0.2025
  20
0.1831
  42
1
  0
VERTEX
  8
Top_Silk
  10
0.2002
  20
0.1831
  42
1
  0
SEQEND
  0
POLYLINE
  8
Top_Silk
  6
CONTINUOUS
  66
1
  70
0
  40
0.0046
  41
0.0046
  0
VERTEX
  8
Top_Silk
  10
0.2106
  20
0.1781
  42
0
  0
VERTEX
  8
Top_Silk
  10
0.2379
  20
0.1781
  42
0
  0
SEQEND
  0
POLYLINE
  8
Top_Silk
  6
CONTINUOUS
  66
1
  70
0
  40
0.0023
  41
0.0023
  0
VERTEX
  8
Top_Silk
  10
0.2094
  20
0.1781
  42
1
  0
VERTEX
  8
Top_Silk
  10
0.2118
  20
0.1781
  42
1
  0
VERTEX
  8
Top_Silk
  10
0.2094
  20
0.1781
  42
1
  0
SEQEND
  0
POLYLINE
  8
Top_Silk
  6
CONTINUOUS
  66
1
  70
0
  40
0.0023
  41
0.0023
  0
VERTEX
  8
Top_Silk
  10
0.2367
  20
0.1781
  42
1
  0
VERTEX
  8
Top_Silk
  10
0.239
  20
0.1781
  42
1
  0
VERTEX
  8
Top_Silk
  10
0.2367
  20
0.1781
  42
1
  0
SEQEND
  0
POLYLINE
  8
Top_Silk
  6
CONTINUOUS
  66
1
  70
0
  40
0.0046
  41
0.0046
  0
VERTEX
  8
Top_Silk
  10
0.2658
  20
0.2032
  42
0
  0
VERTEX
  8
Top_Silk
  10
0.2643
  20
0.1989
  42
0
  0
VERTEX
  8
Top_Silk
  10
0.2615
  20
0.196
  42
0
  0
VERTEX
  8
Top_Silk
  10
0.2572
  20
0.1946
  42
0
  0
VERTEX
  8
Top_Silk
  10
0.2557
  20
0.1946
  42
0
  0
VERTEX
  8
Top_Silk
  10
0.2514
  20
0.196
  42
0
  0
VERTEX
  8
Top_Silk
  10
0.2486
  20
0.1989
  42
0
  0
VERTEX
  8
Top_Silk
  10
0.2471
  20
0.2032
  42
0
  0
VERTEX
  8
Top_Silk
  10
0.2471
  20
0.2046
  42
0
  0
VERTEX
  8
Top_Silk
  10
0.2486
  20
0.2089
  42
0
  0
VERTEX
  8
Top_Silk
  10
0.2514
  20
0.2118
  42
0
  0
VERTEX
  8
Top_Silk
  10
0.2557
  20
0.2132
  42
0
  0
VERTEX
  8
Top_Silk
  10
0.2572
  20
0.2132
  42
0
  0
VERTEX
  8
Top_Silk
  10
0.2615
  20
0.2118
  42
0
  0
VERTEX
  8
Top_Silk
  10
0.2643
  20
0.2089
  42
0
  0
VERTEX
  8
Top_Silk
  10
0.2658
  20
0.2032
  42
0
  0
VERTEX
  8
Top_Silk
  10
0.2658
  20
0.196
  42
0
  0
VERTEX
  8
Top_Silk
  10
0.2643
  20
0.1888
  42
0
  0
VERTEX
  8
Top_Silk
  10
0.2615
  20
0.1845
  42
0
  0
VERTEX
  8
Top_Silk
  10
0.2572
  20
0.1831
  42
0
  0
VERTEX
  8
Top_Silk
  10
0.2543
  20
0.1831
  42
0
  0
VERTEX
  8
Top_Silk
  10
0.25
  20
0.1845
  42
0
  0
VERTEX
  8
Top_Silk
  10
0.2486
  20
0.1874
  42
0
  0
SEQEND
  0
POLYLINE
  8
Top_Silk
  6
CONTINUOUS
  66
1
  70
0
  40
0.0023
  41
0.0023
  0
VERTEX
  8
Top_Silk
  10
0.2646
  20
0.2032
  42
1
  0
VERTEX
  8
Top_Silk
  10
0.2669
  20
0.2032
  42
1
  0
VERTEX
  8
Top_Silk
  10
0.2646
  20
0.2032
  42
1
  0
SEQEND
  0
POLYLINE
  8
Top_Silk
  6
CONTINUOUS
  66
1
  70
0
  40
0.0023
  41
0.0023
  0
VERTEX
  8
Top_Silk
  10
0.2474
  20
0.1874
  42
1
  0
VERTEX
  8
Top_Silk
  10
0.2497
  20
0.1874
  42
1
  0
VERTEX
  8
Top_Silk
  10
0.2474
  20
0.1874
  42
1
  0
SEQEND
  0
POLYLINE
  8
Top_Silk
  6
CONTINUOUS
  66
1
  70
0
  40
0.0046
  41
0.0046
  0
VERTEX
  8
Top_Silk
  10
0.4343
  20
0.1785
  42
0
  0
VERTEX
  8
Top_Silk
  10
0.4329
  20
0.1814
  42
0
  0
VERTEX
  8
Top_Silk
  10
0.43
  20
0.1843
  42
0
  0
VERTEX
  8
Top_Silk
  10
0.4272
  20
0.1857
  42
0
  0
VERTEX
  8
Top_Silk
  10
0.4214
  20
0.1857
  42
0
  0
VERTEX
  8
Top_Silk
  10
0.4185
  20
0.1843
  42
0
  0
VERTEX
  8
Top_Silk
  10
0.4157
  20
0.1814
  42
0
  0
VERTEX
  8
Top_Silk
  10
0.4142
  20
0.1785
  42
0
  0
VERTEX
  8
Top_Silk
  10
0.4128
  20
0.1742
  42
0
  0
VERTEX
  8
Top_Silk
  10
0.4128
  20
0.167
  42
0
  0
VERTEX
  8
Top_Silk
  10
0.4142
  20
0.1627
  42
0
  0
VERTEX
  8
Top_Silk
  10
0.4157
  20
0.1599
  42
0
  0
VERTEX
  8
Top_Silk
  10
0.4185
  20
0.157
  42
0
  0
VERTEX
  8
Top_Silk
  10
0.4214
  20
0.1555
  42
0
  0
VERTEX
  8
Top_Silk
  10
0.4272
  20
0.1555
  42
0
  0
VERTEX
  8
Top_Silk
  10
0.43
  20
0.157
  42
0
  0
VERTEX
  8
Top_Silk
  10
0.4329
  20
0.1599
  42
0
  0
VERTEX
  8
Top_Silk
  10
0.4343
  20
0.1627
  42
0
  0
SEQEND
  0
POLYLINE
  8
Top_Silk
  6
CONTINUOUS
  66
1
  70
0
  40
0.0023
  41
0.0023
  0
VERTEX
  8
Top_Silk
  10
0.4332
  20
0.1785
  42
1
  0
VERTEX
  8
Top_Silk
  10
0.4355
  20
0.1785
  42
1
  0
VERTEX
  8
Top_Silk
  10
0.4332
  20
0.1785
  42
1
  0
SEQEND
  0
POLYLINE
  8
Top_Silk
  6
CONTINUOUS
  66
1
  70
0
  40
0.0023
  41
0.0023
  0
VERTEX
  8
Top_Silk
  10
0.4332
  20
0.1627
  42
1
  0
VERTEX
  8
Top_Silk
  10
0.4355
  20
0.1627
  42
1
  0
VERTEX
  8
Top_Silk
  10
0.4332
  20
0.1627
  42
1
  0
SEQEND
  0
POLYLINE
  8
Top_Silk
  6
CONTINUOUS
  66
1
  70
0
  40
0.0046
  41
0.0046
  0
VERTEX
  8
Top_Silk
  10
0.445
  20
0.1785
  42
0
  0
VERTEX
  8
Top_Silk
  10
0.445
  20
0.1799
  42
0
  0
VERTEX
  8
Top_Silk
  10
0.4465
  20
0.1828
  42
0
  0
VERTEX
  8
Top_Silk
  10
0.4479
  20
0.1842
  42
0
  0
VERTEX
  8
Top_Silk
  10
0.4508
  20
0.1857
  42
0
  0
VERTEX
  8
Top_Silk
  10
0.4565
  20
0.1857
  42
0
  0
VERTEX
  8
Top_Silk
  10
0.4594
  20
0.1842
  42
0
  0
VERTEX
  8
Top_Silk
  10
0.4608
  20
0.1828
  42
0
  0
VERTEX
  8
Top_Silk
  10
0.4623
  20
0.1799
  42
0
  0
VERTEX
  8
Top_Silk
  10
0.4623
  20
0.1771
  42
0
  0
VERTEX
  8
Top_Silk
  10
0.4608
  20
0.1742
  42
0
  0
VERTEX
  8
Top_Silk
  10
0.4579
  20
0.1699
  42
0
  0
VERTEX
  8
Top_Silk
  10
0.4436
  20
0.1555
  42
0
  0
VERTEX
  8
Top_Silk
  10
0.4637
  20
0.1555
  42
0
  0
SEQEND
  0
POLYLINE
  8
Top_Silk
  6
CONTINUOUS
  66
1
  70
0
  40
0.0023
  41
0.0023
  0
VERTEX
  8
Top_Silk
  10
0.4439
  20
0.1785
  42
1
  0
VERTEX
  8
Top_Silk
  10
0.4462
  20
0.1785
  42
1
  0
VERTEX
  8
Top_Silk
  10
0.4439
  20
0.1785
  42
1
  0
SEQEND
  0
POLYLINE
  8
Top_Silk
  6
CONTINUOUS
  66
1
  70
0
  40
0.0023
  41
0.0023
  0
VERTEX
  8
Top_Silk
  10
0.4625
  20
0.1555
  42
1
  0
VERTEX
  8
Top_Silk
  10
0.4648
  20
0.1555
  42
1
  0
VERTEX
  8
Top_Silk
  10
0.4625
  20
0.1555
  42
1
  0
SEQEND
  0
POLYLINE
  8
Top_Silk
  6
CONTINUOUS
  66
1
  70
0
  40
0.0046
  41
0.0046
  0
VERTEX
  8
Top_Silk
  10
0.4729
  20
0.1506
  42
0
  0
VERTEX
  8
Top_Silk
  10
0.5002
  20
0.1506
  42
0
  0
SEQEND
  0
POLYLINE
  8
Top_Silk
  6
CONTINUOUS
  66
1
  70
0
  40
0.0023
  41
0.0023
  0
VERTEX
  8
Top_Silk
  10
0.4718
  20
0.1506
  42
1
  0
VERTEX
  8
Top_Silk
  10
0.4741
  20
0.1506
  42
1
  0
VERTEX
  8
Top_Silk
  10
0.4718
  20
0.1506
  42
1
  0
SEQEND
  0
POLYLINE
  8
Top_Silk
  6
CONTINUOUS
  66
1
  70
0
  40
0.0023
  41
0.0023
  0
VERTEX
  8
Top_Silk
  10
0.499
  20
0.1506
  42
1
  0
VERTEX
  8
Top_Silk
  10
0.5014
  20
0.1506
  42
1
  0
VERTEX
  8
Top_Silk
  10
0.499
  20
0.1506
  42
1
  0
SEQEND
  0
POLYLINE
  8
Top_Silk
  6
CONTINUOUS
  66
1
  70
0
  40
0.0046
  41
0.0046
  0
VERTEX
  8
Top_Silk
  10
0.5281
  20
0.1756
  42
0
  0
VERTEX
  8
Top_Silk
  10
0.5267
  20
0.1713
  42
0
  0
VERTEX
  8
Top_Silk
  10
0.5238
  20
0.1684
  42
0
  0
VERTEX
  8
Top_Silk
  10
0.5195
  20
0.167
  42
0
  0
VERTEX
  8
Top_Silk
  10
0.5181
  20
0.167
  42
0
  0
VERTEX
  8
Top_Silk
  10
0.5138
  20
0.1684
  42
0
  0
VERTEX
  8
Top_Silk
  10
0.5109
  20
0.1713
  42
0
  0
VERTEX
  8
Top_Silk
  10
0.5095
  20
0.1756
  42
0
  0
VERTEX
  8
Top_Silk
  10
0.5095
  20
0.1771
  42
0
  0
VERTEX
  8
Top_Silk
  10
0.5109
  20
0.1814
  42
0
  0
VERTEX
  8
Top_Silk
  10
0.5138
  20
0.1842
  42
0
  0
VERTEX
  8
Top_Silk
  10
0.5181
  20
0.1857
  42
0
  0
VERTEX
  8
Top_Silk
  10
0.5195
  20
0.1857
  42
0
  0
VERTEX
  8
Top_Silk
  10
0.5238
  20
0.1842
  42
0
  0
VERTEX
  8
Top_Silk
  10
0.5267
  20
0.1814
  42
0
  0
VERTEX
  8
Top_Silk
  10
0.5281
  20
0.1756
  42
0
  0
VERTEX
  8
Top_Silk
  10
0.5281
  20
0.1684
  42
0
  0
VERTEX
  8
Top_Silk
  10
0.5267
  20
0.1613
  42
0
  0
VERTEX
  8
Top_Silk
  10
0.5238
  20
0.157
  42
0
  0
VERTEX
  8
Top_Silk
  10
0.5195
  20
0.1555
  42
0
  0
VERTEX
  8
Top_Silk
  10
0.5167
  20
0.1555
  42
0
  0
VERTEX
  8
Top_Silk
  10
0.5124
  20
0.157
  42
0
  0
VERTEX
  8
Top_Silk
  10
0.5109
  20
0.1599
  42
0
  0
SEQEND
  0
POLYLINE
  8
Top_Silk
  6
CONTINUOUS
  66
1
  70
0
  40
0.0023
  41
0.0023
  0
VERTEX
  8
Top_Silk
  10
0.527
  20
0.1756
  42
1
  0
VERTEX
  8
Top_Silk
  10
0.5293
  20
0.1756
  42
1
  0
VERTEX
  8
Top_Silk
  10
0.527
  20
0.1756
  42
1
  0
SEQEND
  0
POLYLINE
  8
Top_Silk
  6
CONTINUOUS
  66
1
  70
0
  40
0.0023
  41
0.0023
  0
VERTEX
  8
Top_Silk
  10
0.5098
  20
0.1599
  42
1
  0
VERTEX
  8
Top_Silk
  10
0.5121
  20
0.1599
  42
1
  0
VERTEX
  8
Top_Silk
  10
0.5098
  20
0.1599
  42
1
  0
SEQEND
  0
POLYLINE
  8
Top_Silk
  6
CONTINUOUS
  66
1
  70
0
  40
0.0046
  41
0.0046
  0
VERTEX
  8
Top_Silk
  10
0.2782
  20
0.3615
  42
0
  0
VERTEX
  8
Top_Silk
  10
0.2753
  20
0.3601
  42
0
  0
VERTEX
  8
Top_Silk
  10
0.2725
  20
0.3572
  42
0
  0
VERTEX
  8
Top_Silk
  10
0.271
  20
0.3543
  42
0
  0
VERTEX
  8
Top_Silk
  10
0.271
  20
0.3486
  42
0
  0
VERTEX
  8
Top_Silk
  10
0.2725
  20
0.3457
  42
0
  0
VERTEX
  8
Top_Silk
  10
0.2753
  20
0.3429
  42
0
  0
VERTEX
  8
Top_Silk
  10
0.2782
  20
0.3414
  42
0
  0
VERTEX
  8
Top_Silk
  10
0.2825
  20
0.34
  42
0
  0
VERTEX
  8
Top_Silk
  10
0.2897
  20
0.34
  42
0
  0
VERTEX
  8
Top_Silk
  10
0.294
  20
0.3414
  42
0
  0
VERTEX
  8
Top_Silk
  10
0.2969
  20
0.3429
  42
0
  0
VERTEX
  8
Top_Silk
  10
0.2997
  20
0.3457
  42
0
  0
VERTEX
  8
Top_Silk
  10
0.3012
  20
0.3486
  42
0
  0
VERTEX
  8
Top_Silk
  10
0.3012
  20
0.3543
  42
0
  0
VERTEX
  8
Top_Silk
  10
0.2997
  20
0.3572
  42
0
  0
VERTEX
  8
Top_Silk
  10
0.2969
  20
0.3601
  42
0
  0
VERTEX
  8
Top_Silk
  10
0.294
  20
0.3615
  42
0
  0
SEQEND
  0
POLYLINE
  8
Top_Silk
  6
CONTINUOUS
  66
1
  70
0
  40
0.0023
  41
0.0023
  0
VERTEX
  8
Top_Silk
  10
0.277
  20
0.3615
  42
1
  0
VERTEX
  8
Top_Silk
  10
0.2793
  20
0.3615
  42
1
  0
VERTEX
  8
Top_Silk
  10
0.277
  20
0.3615
  42
1
  0
SEQEND
  0
POLYLINE
  8
Top_Silk
  6
CONTINUOUS
  66
1
  70
0
  40
0.0023
  41
0.0023
  0
VERTEX
  8
Top_Silk
  10
0.2928
  20
0.3615
  42
1
  0
VERTEX
  8
Top_Silk
  10
0.2951
  20
0.3615
  42
1
  0
VERTEX
  8
Top_Silk
  10
0.2928
  20
0.3615
  42
1
  0
SEQEND
  0
POLYLINE
  8
Top_Silk
  6
CONTINUOUS
  66
1
  70
0
  40
0.0046
  41
0.0046
  0
VERTEX
  8
Top_Silk
  10
0.2711
  20
0.3736
  42
0
  0
VERTEX
  8
Top_Silk
  10
0.2711
  20
0.3894
  42
0
  0
VERTEX
  8
Top_Silk
  10
0.2825
  20
0.3808
  42
0
  0
VERTEX
  8
Top_Silk
  10
0.2825
  20
0.3851
  42
0
  0
VERTEX
  8
Top_Silk
  10
0.284
  20
0.388
  42
0
  0
VERTEX
  8
Top_Silk
  10
0.2854
  20
0.3894
  42
0
  0
VERTEX
  8
Top_Silk
  10
0.2897
  20
0.3909
  42
0
  0
VERTEX
  8
Top_Silk
  10
0.2925
  20
0.3909
  42
0
  0
VERTEX
  8
Top_Silk
  10
0.2969
  20
0.3894
  42
0
  0
VERTEX
  8
Top_Silk
  10
0.2997
  20
0.3865
  42
0
  0
VERTEX
  8
Top_Silk
  10
0.3012
  20
0.3822
  42
0
  0
VERTEX
  8
Top_Silk
  10
0.3012
  20
0.3779
  42
0
  0
VERTEX
  8
Top_Silk
  10
0.2997
  20
0.3736
  42
0
  0
VERTEX
  8
Top_Silk
  10
0.2983
  20
0.3722
  42
0
  0
VERTEX
  8
Top_Silk
  10
0.2954
  20
0.3708
  42
0
  0
SEQEND
  0
POLYLINE
  8
Top_Silk
  6
CONTINUOUS
  66
1
  70
0
  40
0.0023
  41
0.0023
  0
VERTEX
  8
Top_Silk
  10
0.2699
  20
0.3736
  42
1
  0
VERTEX
  8
Top_Silk
  10
0.2722
  20
0.3736
  42
1
  0
VERTEX
  8
Top_Silk
  10
0.2699
  20
0.3736
  42
1
  0
SEQEND
  0
POLYLINE
  8
Top_Silk
  6
CONTINUOUS
  66
1
  70
0
  40
0.0023
  41
0.0023
  0
VERTEX
  8
Top_Silk
  10
0.2943
  20
0.3708
  42
1
  0
VERTEX
  8
Top_Silk
  10
0.2966
  20
0.3708
  42
1
  0
VERTEX
  8
Top_Silk
  10
0.2943
  20
0.3708
  42
1
  0
SEQEND
  0
POLYLINE
  8
Top_Silk
  6
CONTINUOUS
  66
1
  70
0
  40
0.0046
  41
0.0046
  0
VERTEX
  8
Top_Silk
  10
0.3061
  20
0.4001
  42
0
  0
VERTEX
  8
Top_Silk
  10
0.3061
  20
0.4274
  42
0
  0
SEQEND
  0
POLYLINE
  8
Top_Silk
  6
CONTINUOUS
  66
1
  70
0
  40
0.0023
  41
0.0023
  0
VERTEX
  8
Top_Silk
  10
0.305
  20
0.4001
  42
1
  0
VERTEX
  8
Top_Silk
  10
0.3073
  20
0.4001
  42
1
  0
VERTEX
  8
Top_Silk
  10
0.305
  20
0.4001
  42
1
  0
SEQEND
  0
POLYLINE
  8
Top_Silk
  6
CONTINUOUS
  66
1
  70
0
  40
0.0023
  41
0.0023
  0
VERTEX
  8
Top_Silk
  10
0.305
  20
0.4274
  42
1
  0
VERTEX
  8
Top_Silk
  10
0.3073
  20
0.4274
  42
1
  0
VERTEX
  8
Top_Silk
  10
0.305
  20
0.4274
  42
1
  0
SEQEND
  0
POLYLINE
  8
Top_Silk
  6
CONTINUOUS
  66
1
  70
0
  40
0.0046
  41
0.0046
  0
VERTEX
  8
Top_Silk
  10
0.2811
  20
0.4553
  42
0
  0
VERTEX
  8
Top_Silk
  10
0.2854
  20
0.4538
  42
0
  0
VERTEX
  8
Top_Silk
  10
0.2883
  20
0.451
  42
0
  0
VERTEX
  8
Top_Silk
  10
0.2897
  20
0.4467
  42
0
  0
VERTEX
  8
Top_Silk
  10
0.2897
  20
0.4453
  42
0
  0
VERTEX
  8
Top_Silk
  10
0.2883
  20
0.4409
  42
0
  0
VERTEX
  8
Top_Silk
  10
0.2854
  20
0.4381
  42
0
  0
VERTEX
  8
Top_Silk
  10
0.2811
  20
0.4366
  42
0
  0
VERTEX
  8
Top_Silk
  10
0.2796
  20
0.4366
  42
0
  0
VERTEX
  8
Top_Silk
  10
0.2753
  20
0.4381
  42
0
  0
VERTEX
  8
Top_Silk
  10
0.2725
  20
0.4409
  42
0
  0
VERTEX
  8
Top_Silk
  10
0.2711
  20
0.4453
  42
0
  0
VERTEX
  8
Top_Silk
  10
0.2711
  20
0.4467
  42
0
  0
VERTEX
  8
Top_Silk
  10
0.2725
  20
0.451
  42
0
  0
VERTEX
  8
Top_Silk
  10
0.2753
  20
0.4538
  42
0
  0
VERTEX
  8
Top_Silk
  10
0.2811
  20
0.4553
  42
0
  0
VERTEX
  8
Top_Silk
  10
0.2883
  20
0.4553
  42
0
  0
VERTEX
  8
Top_Silk
  10
0.2954
  20
0.4538
  42
0
  0
VERTEX
  8
Top_Silk
  10
0.2997
  20
0.451
  42
0
  0
VERTEX
  8
Top_Silk
  10
0.3012
  20
0.4467
  42
0
  0
VERTEX
  8
Top_Silk
  10
0.3012
  20
0.4438
  42
0
  0
VERTEX
  8
Top_Silk
  10
0.2997
  20
0.4395
  42
0
  0
VERTEX
  8
Top_Silk
  10
0.2969
  20
0.4381
  42
0
  0
SEQEND
  0
POLYLINE
  8
Top_Silk
  6
CONTINUOUS
  66
1
  70
0
  40
0.0023
  41
0.0023
  0
VERTEX
  8
Top_Silk
  10
0.2799
  20
0.4553
  42
1
  0
VERTEX
  8
Top_Silk
  10
0.2822
  20
0.4553
  42
1
  0
VERTEX
  8
Top_Silk
  10
0.2799
  20
0.4553
  42
1
  0
SEQEND
  0
POLYLINE
  8
Top_Silk
  6
CONTINUOUS
  66
1
  70
0
  40
0.0023
  41
0.0023
  0
VERTEX
  8
Top_Silk
  10
0.2957
  20
0.4381
  42
1
  0
VERTEX
  8
Top_Silk
  10
0.298
  20
0.4381
  42
1
  0
VERTEX
  8
Top_Silk
  10
0.2957
  20
0.4381
  42
1
  0
SEQEND
  0
POLYLINE
  8
Top_Silk
  6
CONTINUOUS
  66
1
  70
0
  40
0.0046
  41
0.0046
  0
VERTEX
  8
Top_Silk
  10
0.2316
  20
0.5399
  42
0
  0
VERTEX
  8
Top_Silk
  10
0.2288
  20
0.5385
  42
0
  0
VERTEX
  8
Top_Silk
  10
0.2259
  20
0.5356
  42
0
  0
VERTEX
  8
Top_Silk
  10
0.2245
  20
0.5327
  42
0
  0
VERTEX
  8
Top_Silk
  10
0.2245
  20
0.527
  42
0
  0
VERTEX
  8
Top_Silk
  10
0.2259
  20
0.5241
  42
0
  0
VERTEX
  8
Top_Silk
  10
0.2288
  20
0.5213
  42
0
  0
VERTEX
  8
Top_Silk
  10
0.2316
  20
0.5198
  42
0
  0
VERTEX
  8
Top_Silk
  10
0.2359
  20
0.5184
  42
0
  0
VERTEX
  8
Top_Silk
  10
0.2431
  20
0.5184
  42
0
  0
VERTEX
  8
Top_Silk
  10
0.2474
  20
0.5198
  42
0
  0
VERTEX
  8
Top_Silk
  10
0.2503
  20
0.5213
  42
0
  0
VERTEX
  8
Top_Silk
  10
0.2531
  20
0.5241
  42
0
  0
VERTEX
  8
Top_Silk
  10
0.2546
  20
0.527
  42
0
  0
VERTEX
  8
Top_Silk
  10
0.2546
  20
0.5327
  42
0
  0
VERTEX
  8
Top_Silk
  10
0.2531
  20
0.5356
  42
0
  0
VERTEX
  8
Top_Silk
  10
0.2503
  20
0.5385
  42
0
  0
VERTEX
  8
Top_Silk
  10
0.2474
  20
0.5399
  42
0
  0
SEQEND
  0
POLYLINE
  8
Top_Silk
  6
CONTINUOUS
  66
1
  70
0
  40
0.0023
  41
0.0023
  0
VERTEX
  8
Top_Silk
  10
0.2305
  20
0.5399
  42
1
  0
VERTEX
  8
Top_Silk
  10
0.2328
  20
0.5399
  42
1
  0
VERTEX
  8
Top_Silk
  10
0.2305
  20
0.5399
  42
1
  0
SEQEND
  0
POLYLINE
  8
Top_Silk
  6
CONTINUOUS
  66
1
  70
0
  40
0.0023
  41
0.0023
  0
VERTEX
  8
Top_Silk
  10
0.2462
  20
0.5399
  42
1
  0
VERTEX
  8
Top_Silk
  10
0.2486
  20
0.5399
  42
1
  0
VERTEX
  8
Top_Silk
  10
0.2462
  20
0.5399
  42
1
  0
SEQEND
  0
POLYLINE
  8
Top_Silk
  6
CONTINUOUS
  66
1
  70
0
  40
0.0046
  41
0.0046
  0
VERTEX
  8
Top_Silk
  10
0.2546
  20
0.5635
  42
0
  0
VERTEX
  8
Top_Silk
  10
0.2245
  20
0.5635
  42
0
  0
VERTEX
  8
Top_Silk
  10
0.2445
  20
0.5492
  42
0
  0
VERTEX
  8
Top_Silk
  10
0.2445
  20
0.5707
  42
0
  0
SEQEND
  0
POLYLINE
  8
Top_Silk
  6
CONTINUOUS
  66
1
  70
0
  40
0.0023
  41
0.0023
  0
VERTEX
  8
Top_Silk
  10
0.2534
  20
0.5635
  42
1
  0
VERTEX
  8
Top_Silk
  10
0.2558
  20
0.5635
  42
1
  0
VERTEX
  8
Top_Silk
  10
0.2534
  20
0.5635
  42
1
  0
SEQEND
  0
POLYLINE
  8
Top_Silk
  6
CONTINUOUS
  66
1
  70
0
  40
0.0023
  41
0.0023
  0
VERTEX
  8
Top_Silk
  10
0.2434
  20
0.5707
  42
1
  0
VERTEX
  8
Top_Silk
  10
0.2457
  20
0.5707
  42
1
  0
VERTEX
  8
Top_Silk
  10
0.2434
  20
0.5707
  42
1
  0
SEQEND
  0
POLYLINE
  8
Top_Silk
  6
CONTINUOUS
  66
1
  70
0
  40
0.0046
  41
0.0046
  0
VERTEX
  8
Top_Silk
  10
0.2596
  20
0.58
  42
0
  0
VERTEX
  8
Top_Silk
  10
0.2596
  20
0.6072
  42
0
  0
SEQEND
  0
POLYLINE
  8
Top_Silk
  6
CONTINUOUS
  66
1
  70
0
  40
0.0023
  41
0.0023
  0
VERTEX
  8
Top_Silk
  10
0.2584
  20
0.58
  42
1
  0
VERTEX
  8
Top_Silk
  10
0.2607
  20
0.58
  42
1
  0
VERTEX
  8
Top_Silk
  10
0.2584
  20
0.58
  42
1
  0
SEQEND
  0
POLYLINE
  8
Top_Silk
  6
CONTINUOUS
  66
1
  70
0
  40
0.0023
  41
0.0023
  0
VERTEX
  8
Top_Silk
  10
0.2584
  20
0.6072
  42
1
  0
VERTEX
  8
Top_Silk
  10
0.2607
  20
0.6072
  42
1
  0
VERTEX
  8
Top_Silk
  10
0.2584
  20
0.6072
  42
1
  0
SEQEND
  0
POLYLINE
  8
Top_Silk
  6
CONTINUOUS
  66
1
  70
0
  40
0.0046
  41
0.0046
  0
VERTEX
  8
Top_Silk
  10
0.2345
  20
0.6352
  42
0
  0
VERTEX
  8
Top_Silk
  10
0.2388
  20
0.6337
  42
0
  0
VERTEX
  8
Top_Silk
  10
0.2417
  20
0.6308
  42
0
  0
VERTEX
  8
Top_Silk
  10
0.2431
  20
0.6265
  42
0
  0
VERTEX
  8
Top_Silk
  10
0.2431
  20
0.6251
  42
0
  0
VERTEX
  8
Top_Silk
  10
0.2417
  20
0.6208
  42
0
  0
VERTEX
  8
Top_Silk
  10
0.2388
  20
0.6179
  42
0
  0
VERTEX
  8
Top_Silk
  10
0.2345
  20
0.6165
  42
0
  0
VERTEX
  8
Top_Silk
  10
0.2331
  20
0.6165
  42
0
  0
VERTEX
  8
Top_Silk
  10
0.2288
  20
0.6179
  42
0
  0
VERTEX
  8
Top_Silk
  10
0.2259
  20
0.6208
  42
0
  0
VERTEX
  8
Top_Silk
  10
0.2245
  20
0.6251
  42
0
  0
VERTEX
  8
Top_Silk
  10
0.2245
  20
0.6265
  42
0
  0
VERTEX
  8
Top_Silk
  10
0.2259
  20
0.6308
  42
0
  0
VERTEX
  8
Top_Silk
  10
0.2288
  20
0.6337
  42
0
  0
VERTEX
  8
Top_Silk
  10
0.2345
  20
0.6352
  42
0
  0
VERTEX
  8
Top_Silk
  10
0.2417
  20
0.6352
  42
0
  0
VERTEX
  8
Top_Silk
  10
0.2489
  20
0.6337
  42
0
  0
VERTEX
  8
Top_Silk
  10
0.2532
  20
0.6308
  42
0
  0
VERTEX
  8
Top_Silk
  10
0.2546
  20
0.6265
  42
0
  0
VERTEX
  8
Top_Silk
  10
0.2546
  20
0.6237
  42
0
  0
VERTEX
  8
Top_Silk
  10
0.2532
  20
0.6194
  42
0
  0
VERTEX
  8
Top_Silk
  10
0.2503
  20
0.6179
  42
0
  0
SEQEND
  0
POLYLINE
  8
Top_Silk
  6
CONTINUOUS
  66
1
  70
0
  40
0.0023
  41
0.0023
  0
VERTEX
  8
Top_Silk
  10
0.2333
  20
0.6352
  42
1
  0
VERTEX
  8
Top_Silk
  10
0.2357
  20
0.6352
  42
1
  0
VERTEX
  8
Top_Silk
  10
0.2333
  20
0.6352
  42
1
  0
SEQEND
  0
POLYLINE
  8
Top_Silk
  6
CONTINUOUS
  66
1
  70
0
  40
0.0023
  41
0.0023
  0
VERTEX
  8
Top_Silk
  10
0.2491
  20
0.6179
  42
1
  0
VERTEX
  8
Top_Silk
  10
0.2514
  20
0.6179
  42
1
  0
VERTEX
  8
Top_Silk
  10
0.2491
  20
0.6179
  42
1
  0
SEQEND
  0
POLYLINE
  8
Top_Silk
  6
CONTINUOUS
  66
1
  70
0
  40
0.0046
  41
0.0046
  0
VERTEX
  8
Top_Silk
  10
0.3222
  20
0.4894
  42
0
  0
VERTEX
  8
Top_Silk
  10
0.3193
  20
0.488
  42
0
  0
VERTEX
  8
Top_Silk
  10
0.3164
  20
0.4851
  42
0
  0
VERTEX
  8
Top_Silk
  10
0.315
  20
0.4823
  42
0
  0
VERTEX
  8
Top_Silk
  10
0.315
  20
0.4765
  42
0
  0
VERTEX
  8
Top_Silk
  10
0.3164
  20
0.4737
  42
0
  0
VERTEX
  8
Top_Silk
  10
0.3193
  20
0.4708
  42
0
  0
VERTEX
  8
Top_Silk
  10
0.3222
  20
0.4693
  42
0
  0
VERTEX
  8
Top_Silk
  10
0.3265
  20
0.4679
  42
0
  0
VERTEX
  8
Top_Silk
  10
0.3337
  20
0.4679
  42
0
  0
VERTEX
  8
Top_Silk
  10
0.338
  20
0.4693
  42
0
  0
VERTEX
  8
Top_Silk
  10
0.3408
  20
0.4708
  42
0
  0
VERTEX
  8
Top_Silk
  10
0.3437
  20
0.4737
  42
0
  0
VERTEX
  8
Top_Silk
  10
0.3451
  20
0.4765
  42
0
  0
VERTEX
  8
Top_Silk
  10
0.3451
  20
0.4823
  42
0
  0
VERTEX
  8
Top_Silk
  10
0.3437
  20
0.4851
  42
0
  0
VERTEX
  8
Top_Silk
  10
0.3408
  20
0.488
  42
0
  0
VERTEX
  8
Top_Silk
  10
0.338
  20
0.4894
  42
0
  0
SEQEND
  0
POLYLINE
  8
Top_Silk
  6
CONTINUOUS
  66
1
  70
0
  40
0.0023
  41
0.0023
  0
VERTEX
  8
Top_Silk
  10
0.321
  20
0.4894
  42
1
  0
VERTEX
  8
Top_Silk
  10
0.3233
  20
0.4894
  42
1
  0
VERTEX
  8
Top_Silk
  10
0.321
  20
0.4894
  42
1
  0
SEQEND
  0
POLYLINE
  8
Top_Silk
  6
CONTINUOUS
  66
1
  70
0
  40
0.0023
  41
0.0023
  0
VERTEX
  8
Top_Silk
  10
0.3368
  20
0.4894
  42
1
  0
VERTEX
  8
Top_Silk
  10
0.3391
  20
0.4894
  42
1
  0
VERTEX
  8
Top_Silk
  10
0.3368
  20
0.4894
  42
1
  0
SEQEND
  0
POLYLINE
  8
Top_Silk
  6
CONTINUOUS
  66
1
  70
0
  40
0.0046
  41
0.0046
  0
VERTEX
  8
Top_Silk
  10
0.315
  20
0.5159
  42
0
  0
VERTEX
  8
Top_Silk
  10
0.315
  20
0.5016
  42
0
  0
VERTEX
  8
Top_Silk
  10
0.3279
  20
0.5002
  42
0
  0
VERTEX
  8
Top_Silk
  10
0.3265
  20
0.5016
  42
0
  0
VERTEX
  8
Top_Silk
  10
0.3251
  20
0.5059
  42
0
  0
VERTEX
  8
Top_Silk
  10
0.3251
  20
0.5102
  42
0
  0
VERTEX
  8
Top_Silk
  10
0.3265
  20
0.5145
  42
0
  0
VERTEX
  8
Top_Silk
  10
0.3294
  20
0.5174
  42
0
  0
VERTEX
  8
Top_Silk
  10
0.3337
  20
0.5188
  42
0
  0
VERTEX
  8
Top_Silk
  10
0.3365
  20
0.5188
  42
0
  0
VERTEX
  8
Top_Silk
  10
0.3408
  20
0.5174
  42
0
  0
VERTEX
  8
Top_Silk
  10
0.3437
  20
0.5145
  42
0
  0
VERTEX
  8
Top_Silk
  10
0.3451
  20
0.5102
  42
0
  0
VERTEX
  8
Top_Silk
  10
0.3451
  20
0.5059
  42
0
  0
VERTEX
  8
Top_Silk
  10
0.3437
  20
0.5016
  42
0
  0
VERTEX
  8
Top_Silk
  10
0.3423
  20
0.5002
  42
0
  0
VERTEX
  8
Top_Silk
  10
0.3394
  20
0.4987
  42
0
  0
SEQEND
  0
POLYLINE
  8
Top_Silk
  6
CONTINUOUS
  66
1
  70
0
  40
0.0023
  41
0.0023
  0
VERTEX
  8
Top_Silk
  10
0.3139
  20
0.5159
  42
1
  0
VERTEX
  8
Top_Silk
  10
0.3162
  20
0.5159
  42
1
  0
VERTEX
  8
Top_Silk
  10
0.3139
  20
0.5159
  42
1
  0
SEQEND
  0
POLYLINE
  8
Top_Silk
  6
CONTINUOUS
  66
1
  70
0
  40
0.0023
  41
0.0023
  0
VERTEX
  8
Top_Silk
  10
0.3383
  20
0.4987
  42
1
  0
VERTEX
  8
Top_Silk
  10
0.3406
  20
0.4987
  42
1
  0
VERTEX
  8
Top_Silk
  10
0.3383
  20
0.4987
  42
1
  0
SEQEND
  0
POLYLINE
  8
Top_Silk
  6
CONTINUOUS
  66
1
  70
0
  40
0.0046
  41
0.0046
  0
VERTEX
  8
Top_Silk
  10
0.3501
  20
0.5281
  42
0
  0
VERTEX
  8
Top_Silk
  10
0.3501
  20
0.5553
  42
0
  0
SEQEND
  0
POLYLINE
  8
Top_Silk
  6
CONTINUOUS
  66
1
  70
0
  40
0.0023
  41
0.0023
  0
VERTEX
  8
Top_Silk
  10
0.349
  20
0.5281
  42
1
  0
VERTEX
  8
Top_Silk
  10
0.3513
  20
0.5281
  42
1
  0
VERTEX
  8
Top_Silk
  10
0.349
  20
0.5281
  42
1
  0
SEQEND
  0
POLYLINE
  8
Top_Silk
  6
CONTINUOUS
  66
1
  70
0
  40
0.0023
  41
0.0023
  0
VERTEX
  8
Top_Silk
  10
0.349
  20
0.5553
  42
1
  0
VERTEX
  8
Top_Silk
  10
0.3513
  20
0.5553
  42
1
  0
VERTEX
  8
Top_Silk
  10
0.349
  20
0.5553
  42
1
  0
SEQEND
  0
POLYLINE
  8
Top_Silk
  6
CONTINUOUS
  66
1
  70
0
  40
0.0046
  41
0.0046
  0
VERTEX
  8
Top_Silk
  10
0.3251
  20
0.5833
  42
0
  0
VERTEX
  8
Top_Silk
  10
0.3294
  20
0.5818
  42
0
  0
VERTEX
  8
Top_Silk
  10
0.3322
  20
0.5789
  42
0
  0
VERTEX
  8
Top_Silk
  10
0.3337
  20
0.5746
  42
0
  0
VERTEX
  8
Top_Silk
  10
0.3337
  20
0.5732
  42
0
  0
VERTEX
  8
Top_Silk
  10
0.3322
  20
0.5689
  42
0
  0
VERTEX
  8
Top_Silk
  10
0.3294
  20
0.566
  42
0
  0
VERTEX
  8
Top_Silk
  10
0.3251
  20
0.5646
  42
0
  0
VERTEX
  8
Top_Silk
  10
0.3236
  20
0.5646
  42
0
  0
VERTEX
  8
Top_Silk
  10
0.3193
  20
0.566
  42
0
  0
VERTEX
  8
Top_Silk
  10
0.3165
  20
0.5689
  42
0
  0
VERTEX
  8
Top_Silk
  10
0.315
  20
0.5732
  42
0
  0
VERTEX
  8
Top_Silk
  10
0.315
  20
0.5746
  42
0
  0
VERTEX
  8
Top_Silk
  10
0.3165
  20
0.5789
  42
0
  0
VERTEX
  8
Top_Silk
  10
0.3193
  20
0.5818
  42
0
  0
VERTEX
  8
Top_Silk
  10
0.3251
  20
0.5833
  42
0
  0
VERTEX
  8
Top_Silk
  10
0.3322
  20
0.5833
  42
0
  0
VERTEX
  8
Top_Silk
  10
0.3394
  20
0.5818
  42
0
  0
VERTEX
  8
Top_Silk
  10
0.3437
  20
0.5789
  42
0
  0
VERTEX
  8
Top_Silk
  10
0.3451
  20
0.5746
  42
0
  0
VERTEX
  8
Top_Silk
  10
0.3451
  20
0.5718
  42
0
  0
VERTEX
  8
Top_Silk
  10
0.3437
  20
0.5675
  42
0
  0
VERTEX
  8
Top_Silk
  10
0.3408
  20
0.566
  42
0
  0
SEQEND
  0
POLYLINE
  8
Top_Silk
  6
CONTINUOUS
  66
1
  70
0
  40
0.0023
  41
0.0023
  0
VERTEX
  8
Top_Silk
  10
0.3239
  20
0.5833
  42
1
  0
VERTEX
  8
Top_Silk
  10
0.3262
  20
0.5833
  42
1
  0
VERTEX
  8
Top_Silk
  10
0.3239
  20
0.5833
  42
1
  0
SEQEND
  0
POLYLINE
  8
Top_Silk
  6
CONTINUOUS
  66
1
  70
0
  40
0.0023
  41
0.0023
  0
VERTEX
  8
Top_Silk
  10
0.3397
  20
0.566
  42
1
  0
VERTEX
  8
Top_Silk
  10
0.342
  20
0.566
  42
1
  0
VERTEX
  8
Top_Silk
  10
0.3397
  20
0.566
  42
1
  0
SEQEND
  0
POLYLINE
  8
Top_Silk
  6
CONTINUOUS
  66
1
  70
0
  40
0.0046
  41
0.0046
  0
VERTEX
  8
Top_Silk
  10
0.4081
  20
0.4711
  42
0
  0
VERTEX
  8
Top_Silk
  10
0.4081
  20
0.484
  42
0
  0
VERTEX
  8
Top_Silk
  10
0.4066
  20
0.4884
  42
0
  0
VERTEX
  8
Top_Silk
  10
0.4052
  20
0.4898
  42
0
  0
VERTEX
  8
Top_Silk
  10
0.4024
  20
0.4912
  42
0
  0
VERTEX
  8
Top_Silk
  10
0.3995
  20
0.4912
  42
0
  0
VERTEX
  8
Top_Silk
  10
0.3966
  20
0.4898
  42
0
  0
VERTEX
  8
Top_Silk
  10
0.3952
  20
0.4884
  42
0
  0
VERTEX
  8
Top_Silk
  10
0.3937
  20
0.484
  42
0
  0
VERTEX
  8
Top_Silk
  10
0.3937
  20
0.4711
  42
0
  0
VERTEX
  8
Top_Silk
  10
0.4239
  20
0.4711
  42
0
  0
SEQEND
  0
POLYLINE
  8
Top_Silk
  6
CONTINUOUS
  66
1
  70
0
  40
0.0023
  41
0.0023
  0
VERTEX
  8
Top_Silk
  10
0.4069
  20
0.4711
  42
1
  0
VERTEX
  8
Top_Silk
  10
0.4093
  20
0.4711
  42
1
  0
VERTEX
  8
Top_Silk
  10
0.4069
  20
0.4711
  42
1
  0
SEQEND
  0
POLYLINE
  8
Top_Silk
  6
CONTINUOUS
  66
1
  70
0
  40
0.0023
  41
0.0023
  0
VERTEX
  8
Top_Silk
  10
0.4227
  20
0.4711
  42
1
  0
VERTEX
  8
Top_Silk
  10
0.425
  20
0.4711
  42
1
  0
VERTEX
  8
Top_Silk
  10
0.4227
  20
0.4711
  42
1
  0
SEQEND
  0
POLYLINE
  8
Top_Silk
  6
CONTINUOUS
  66
1
  70
0
  40
0.0046
  41
0.0046
  0
VERTEX
  8
Top_Silk
  10
0.4081
  20
0.4812
  42
0
  0
VERTEX
  8
Top_Silk
  10
0.4239
  20
0.4912
  42
0
  0
SEQEND
  0
POLYLINE
  8
Top_Silk
  6
CONTINUOUS
  66
1
  70
0
  40
0.0023
  41
0.0023
  0
VERTEX
  8
Top_Silk
  10
0.4069
  20
0.4812
  42
1
  0
VERTEX
  8
Top_Silk
  10
0.4093
  20
0.4812
  42
1
  0
VERTEX
  8
Top_Silk
  10
0.4069
  20
0.4812
  42
1
  0
SEQEND
  0
POLYLINE
  8
Top_Silk
  6
CONTINUOUS
  66
1
  70
0
  40
0.0023
  41
0.0023
  0
VERTEX
  8
Top_Silk
  10
0.4227
  20
0.4912
  42
1
  0
VERTEX
  8
Top_Silk
  10
0.425
  20
0.4912
  42
1
  0
VERTEX
  8
Top_Silk
  10
0.4227
  20
0.4912
  42
1
  0
SEQEND
  0
POLYLINE
  8
Top_Silk
  6
CONTINUOUS
  66
1
  70
0
  40
0.0046
  41
0.0046
  0
VERTEX
  8
Top_Silk
  10
0.3995
  20
0.5005
  42
0
  0
VERTEX
  8
Top_Silk
  10
0.3981
  20
0.5034
  42
0
  0
VERTEX
  8
Top_Silk
  10
0.3938
  20
0.5077
  42
0
  0
VERTEX
  8
Top_Silk
  10
0.4239
  20
0.5077
  42
0
  0
SEQEND
  0
POLYLINE
  8
Top_Silk
  6
CONTINUOUS
  66
1
  70
0
  40
0.0023
  41
0.0023
  0
VERTEX
  8
Top_Silk
  10
0.3984
  20
0.5005
  42
1
  0
VERTEX
  8
Top_Silk
  10
0.4007
  20
0.5005
  42
1
  0
VERTEX
  8
Top_Silk
  10
0.3984
  20
0.5005
  42
1
  0
SEQEND
  0
POLYLINE
  8
Top_Silk
  6
CONTINUOUS
  66
1
  70
0
  40
0.0023
  41
0.0023
  0
VERTEX
  8
Top_Silk
  10
0.4227
  20
0.5077
  42
1
  0
VERTEX
  8
Top_Silk
  10
0.425
  20
0.5077
  42
1
  0
VERTEX
  8
Top_Silk
  10
0.4227
  20
0.5077
  42
1
  0
SEQEND
  0
POLYLINE
  8
Top_Silk
  6
CONTINUOUS
  66
1
  70
0
  40
0.0046
  41
0.0046
  0
VERTEX
  8
Top_Silk
  10
0.4289
  20
0.517
  42
0
  0
VERTEX
  8
Top_Silk
  10
0.4289
  20
0.5442
  42
0
  0
SEQEND
  0
POLYLINE
  8
Top_Silk
  6
CONTINUOUS
  66
1
  70
0
  40
0.0023
  41
0.0023
  0
VERTEX
  8
Top_Silk
  10
0.4277
  20
0.517
  42
1
  0
VERTEX
  8
Top_Silk
  10
0.43
  20
0.517
  42
1
  0
VERTEX
  8
Top_Silk
  10
0.4277
  20
0.517
  42
1
  0
SEQEND
  0
POLYLINE
  8
Top_Silk
  6
CONTINUOUS
  66
1
  70
0
  40
0.0023
  41
0.0023
  0
VERTEX
  8
Top_Silk
  10
0.4277
  20
0.5442
  42
1
  0
VERTEX
  8
Top_Silk
  10
0.43
  20
0.5442
  42
1
  0
VERTEX
  8
Top_Silk
  10
0.4277
  20
0.5442
  42
1
  0
SEQEND
  0
POLYLINE
  8
Top_Silk
  6
CONTINUOUS
  66
1
  70
0
  40
0.0046
  41
0.0046
  0
VERTEX
  8
Top_Silk
  10
0.4038
  20
0.5722
  42
0
  0
VERTEX
  8
Top_Silk
  10
0.4081
  20
0.5707
  42
0
  0
VERTEX
  8
Top_Silk
  10
0.411
  20
0.5678
  42
0
  0
VERTEX
  8
Top_Silk
  10
0.4124
  20
0.5635
  42
0
  0
VERTEX
  8
Top_Silk
  10
0.4124
  20
0.5621
  42
0
  0
VERTEX
  8
Top_Silk
  10
0.411
  20
0.5578
  42
0
  0
VERTEX
  8
Top_Silk
  10
0.4081
  20
0.5549
  42
0
  0
VERTEX
  8
Top_Silk
  10
0.4038
  20
0.5535
  42
0
  0
VERTEX
  8
Top_Silk
  10
0.4024
  20
0.5535
  42
0
  0
VERTEX
  8
Top_Silk
  10
0.3981
  20
0.5549
  42
0
  0
VERTEX
  8
Top_Silk
  10
0.3952
  20
0.5578
  42
0
  0
VERTEX
  8
Top_Silk
  10
0.3938
  20
0.5621
  42
0
  0
VERTEX
  8
Top_Silk
  10
0.3938
  20
0.5635
  42
0
  0
VERTEX
  8
Top_Silk
  10
0.3952
  20
0.5678
  42
0
  0
VERTEX
  8
Top_Silk
  10
0.3981
  20
0.5707
  42
0
  0
VERTEX
  8
Top_Silk
  10
0.4038
  20
0.5722
  42
0
  0
VERTEX
  8
Top_Silk
  10
0.411
  20
0.5722
  42
0
  0
VERTEX
  8
Top_Silk
  10
0.4182
  20
0.5707
  42
0
  0
VERTEX
  8
Top_Silk
  10
0.4225
  20
0.5678
  42
0
  0
VERTEX
  8
Top_Silk
  10
0.4239
  20
0.5635
  42
0
  0
VERTEX
  8
Top_Silk
  10
0.4239
  20
0.5607
  42
0
  0
VERTEX
  8
Top_Silk
  10
0.4225
  20
0.5564
  42
0
  0
VERTEX
  8
Top_Silk
  10
0.4196
  20
0.5549
  42
0
  0
SEQEND
  0
POLYLINE
  8
Top_Silk
  6
CONTINUOUS
  66
1
  70
0
  40
0.0023
  41
0.0023
  0
VERTEX
  8
Top_Silk
  10
0.4026
  20
0.5722
  42
1
  0
VERTEX
  8
Top_Silk
  10
0.4049
  20
0.5722
  42
1
  0
VERTEX
  8
Top_Silk
  10
0.4026
  20
0.5722
  42
1
  0
SEQEND
  0
POLYLINE
  8
Top_Silk
  6
CONTINUOUS
  66
1
  70
0
  40
0.0023
  41
0.0023
  0
VERTEX
  8
Top_Silk
  10
0.4184
  20
0.5549
  42
1
  0
VERTEX
  8
Top_Silk
  10
0.4207
  20
0.5549
  42
1
  0
VERTEX
  8
Top_Silk
  10
0.4184
  20
0.5549
  42
1
  0
SEQEND
  0
POLYLINE
  8
Top_Silk
  6
CONTINUOUS
  66
1
  70
0
  40
0.0046
  41
0.0046
  0
VERTEX
  8
Top_Silk
  10
0.4868
  20
0.4686
  42
0
  0
VERTEX
  8
Top_Silk
  10
0.4868
  20
0.4815
  42
0
  0
VERTEX
  8
Top_Silk
  10
0.4854
  20
0.4858
  42
0
  0
VERTEX
  8
Top_Silk
  10
0.484
  20
0.4873
  42
0
  0
VERTEX
  8
Top_Silk
  10
0.4811
  20
0.4887
  42
0
  0
VERTEX
  8
Top_Silk
  10
0.4782
  20
0.4887
  42
0
  0
VERTEX
  8
Top_Silk
  10
0.4754
  20
0.4873
  42
0
  0
VERTEX
  8
Top_Silk
  10
0.4739
  20
0.4858
  42
0
  0
VERTEX
  8
Top_Silk
  10
0.4725
  20
0.4815
  42
0
  0
VERTEX
  8
Top_Silk
  10
0.4725
  20
0.4686
  42
0
  0
VERTEX
  8
Top_Silk
  10
0.5026
  20
0.4686
  42
0
  0
SEQEND
  0
POLYLINE
  8
Top_Silk
  6
CONTINUOUS
  66
1
  70
0
  40
0.0023
  41
0.0023
  0
VERTEX
  8
Top_Silk
  10
0.4857
  20
0.4686
  42
1
  0
VERTEX
  8
Top_Silk
  10
0.488
  20
0.4686
  42
1
  0
VERTEX
  8
Top_Silk
  10
0.4857
  20
0.4686
  42
1
  0
SEQEND
  0
POLYLINE
  8
Top_Silk
  6
CONTINUOUS
  66
1
  70
0
  40
0.0023
  41
0.0023
  0
VERTEX
  8
Top_Silk
  10
0.5015
  20
0.4686
  42
1
  0
VERTEX
  8
Top_Silk
  10
0.5038
  20
0.4686
  42
1
  0
VERTEX
  8
Top_Silk
  10
0.5015
  20
0.4686
  42
1
  0
SEQEND
  0
POLYLINE
  8
Top_Silk
  6
CONTINUOUS
  66
1
  70
0
  40
0.0046
  41
0.0046
  0
VERTEX
  8
Top_Silk
  10
0.4868
  20
0.4787
  42
0
  0
VERTEX
  8
Top_Silk
  10
0.5026
  20
0.4887
  42
0
  0
SEQEND
  0
POLYLINE
  8
Top_Silk
  6
CONTINUOUS
  66
1
  70
0
  40
0.0023
  41
0.0023
  0
VERTEX
  8
Top_Silk
  10
0.4857
  20
0.4787
  42
1
  0
VERTEX
  8
Top_Silk
  10
0.488
  20
0.4787
  42
1
  0
VERTEX
  8
Top_Silk
  10
0.4857
  20
0.4787
  42
1
  0
SEQEND
  0
POLYLINE
  8
Top_Silk
  6
CONTINUOUS
  66
1
  70
0
  40
0.0023
  41
0.0023
  0
VERTEX
  8
Top_Silk
  10
0.5015
  20
0.4887
  42
1
  0
VERTEX
  8
Top_Silk
  10
0.5038
  20
0.4887
  42
1
  0
VERTEX
  8
Top_Silk
  10
0.5015
  20
0.4887
  42
1
  0
SEQEND
  0
POLYLINE
  8
Top_Silk
  6
CONTINUOUS
  66
1
  70
0
  40
0.0046
  41
0.0046
  0
VERTEX
  8
Top_Silk
  10
0.4797
  20
0.4995
  42
0
  0
VERTEX
  8
Top_Silk
  10
0.4783
  20
0.4995
  42
0
  0
VERTEX
  8
Top_Silk
  10
0.4754
  20
0.5009
  42
0
  0
VERTEX
  8
Top_Silk
  10
0.4739
  20
0.5023
  42
0
  0
VERTEX
  8
Top_Silk
  10
0.4725
  20
0.5052
  42
0
  0
VERTEX
  8
Top_Silk
  10
0.4725
  20
0.5109
  42
0
  0
VERTEX
  8
Top_Silk
  10
0.4739
  20
0.5138
  42
0
  0
VERTEX
  8
Top_Silk
  10
0.4754
  20
0.5152
  42
0
  0
VERTEX
  8
Top_Silk
  10
0.4783
  20
0.5167
  42
0
  0
VERTEX
  8
Top_Silk
  10
0.4811
  20
0.5167
  42
0
  0
VERTEX
  8
Top_Silk
  10
0.484
  20
0.5152
  42
0
  0
VERTEX
  8
Top_Silk
  10
0.4883
  20
0.5124
  42
0
  0
VERTEX
  8
Top_Silk
  10
0.5026
  20
0.498
  42
0
  0
VERTEX
  8
Top_Silk
  10
0.5026
  20
0.5181
  42
0
  0
SEQEND
  0
POLYLINE
  8
Top_Silk
  6
CONTINUOUS
  66
1
  70
0
  40
0.0023
  41
0.0023
  0
VERTEX
  8
Top_Silk
  10
0.4785
  20
0.4995
  42
1
  0
VERTEX
  8
Top_Silk
  10
0.4808
  20
0.4995
  42
1
  0
VERTEX
  8
Top_Silk
  10
0.4785
  20
0.4995
  42
1
  0
SEQEND
  0
POLYLINE
  8
Top_Silk
  6
CONTINUOUS
  66
1
  70
0
  40
0.0023
  41
0.0023
  0
VERTEX
  8
Top_Silk
  10
0.5015
  20
0.5181
  42
1
  0
VERTEX
  8
Top_Silk
  10
0.5038
  20
0.5181
  42
1
  0
VERTEX
  8
Top_Silk
  10
0.5015
  20
0.5181
  42
1
  0
SEQEND
  0
POLYLINE
  8
Top_Silk
  6
CONTINUOUS
  66
1
  70
0
  40
0.0046
  41
0.0046
  0
VERTEX
  8
Top_Silk
  10
0.5076
  20
0.5274
  42
0
  0
VERTEX
  8
Top_Silk
  10
0.5076
  20
0.5546
  42
0
  0
SEQEND
  0
POLYLINE
  8
Top_Silk
  6
CONTINUOUS
  66
1
  70
0
  40
0.0023
  41
0.0023
  0
VERTEX
  8
Top_Silk
  10
0.5064
  20
0.5274
  42
1
  0
VERTEX
  8
Top_Silk
  10
0.5088
  20
0.5274
  42
1
  0
VERTEX
  8
Top_Silk
  10
0.5064
  20
0.5274
  42
1
  0
SEQEND
  0
POLYLINE
  8
Top_Silk
  6
CONTINUOUS
  66
1
  70
0
  40
0.0023
  41
0.0023
  0
VERTEX
  8
Top_Silk
  10
0.5064
  20
0.5546
  42
1
  0
VERTEX
  8
Top_Silk
  10
0.5088
  20
0.5546
  42
1
  0
VERTEX
  8
Top_Silk
  10
0.5064
  20
0.5546
  42
1
  0
SEQEND
  0
POLYLINE
  8
Top_Silk
  6
CONTINUOUS
  66
1
  70
0
  40
0.0046
  41
0.0046
  0
VERTEX
  8
Top_Silk
  10
0.4825
  20
0.5825
  42
0
  0
VERTEX
  8
Top_Silk
  10
0.4868
  20
0.5811
  42
0
  0
VERTEX
  8
Top_Silk
  10
0.4897
  20
0.5782
  42
0
  0
VERTEX
  8
Top_Silk
  10
0.4912
  20
0.5739
  42
0
  0
VERTEX
  8
Top_Silk
  10
0.4912
  20
0.5725
  42
0
  0
VERTEX
  8
Top_Silk
  10
0.4897
  20
0.5682
  42
0
  0
VERTEX
  8
Top_Silk
  10
0.4868
  20
0.5653
  42
0
  0
VERTEX
  8
Top_Silk
  10
0.4825
  20
0.5639
  42
0
  0
VERTEX
  8
Top_Silk
  10
0.4811
  20
0.5639
  42
0
  0
VERTEX
  8
Top_Silk
  10
0.4768
  20
0.5653
  42
0
  0
VERTEX
  8
Top_Silk
  10
0.4739
  20
0.5682
  42
0
  0
VERTEX
  8
Top_Silk
  10
0.4725
  20
0.5725
  42
0
  0
VERTEX
  8
Top_Silk
  10
0.4725
  20
0.5739
  42
0
  0
VERTEX
  8
Top_Silk
  10
0.4739
  20
0.5782
  42
0
  0
VERTEX
  8
Top_Silk
  10
0.4768
  20
0.5811
  42
0
  0
VERTEX
  8
Top_Silk
  10
0.4825
  20
0.5825
  42
0
  0
VERTEX
  8
Top_Silk
  10
0.4897
  20
0.5825
  42
0
  0
VERTEX
  8
Top_Silk
  10
0.4969
  20
0.5811
  42
0
  0
VERTEX
  8
Top_Silk
  10
0.5012
  20
0.5782
  42
0
  0
VERTEX
  8
Top_Silk
  10
0.5026
  20
0.5739
  42
0
  0
VERTEX
  8
Top_Silk
  10
0.5026
  20
0.5711
  42
0
  0
VERTEX
  8
Top_Silk
  10
0.5012
  20
0.5668
  42
0
  0
VERTEX
  8
Top_Silk
  10
0.4983
  20
0.5653
  42
0
  0
SEQEND
  0
POLYLINE
  8
Top_Silk
  6
CONTINUOUS
  66
1
  70
0
  40
0.0023
  41
0.0023
  0
VERTEX
  8
Top_Silk
  10
0.4814
  20
0.5825
  42
1
  0
VERTEX
  8
Top_Silk
  10
0.4837
  20
0.5825
  42
1
  0
VERTEX
  8
Top_Silk
  10
0.4814
  20
0.5825
  42
1
  0
SEQEND
  0
POLYLINE
  8
Top_Silk
  6
CONTINUOUS
  66
1
  70
0
  40
0.0023
  41
0.0023
  0
VERTEX
  8
Top_Silk
  10
0.4972
  20
0.5653
  42
1
  0
VERTEX
  8
Top_Silk
  10
0.4995
  20
0.5653
  42
1
  0
VERTEX
  8
Top_Silk
  10
0.4972
  20
0.5653
  42
1
  0
SEQEND
  0
POLYLINE
  8
Top_Silk
  6
CONTINUOUS
  66
1
  70
0
  40
0.0046
  41
0.0046
  0
VERTEX
  8
Top_Silk
  10
0.4135
  20
0.0926
  42
0
  0
VERTEX
  8
Top_Silk
  10
0.4264
  20
0.0926
  42
0
  0
VERTEX
  8
Top_Silk
  10
0.4307
  20
0.0941
  42
0
  0
VERTEX
  8
Top_Silk
  10
0.4322
  20
0.0955
  42
0
  0
VERTEX
  8
Top_Silk
  10
0.4336
  20
0.0983
  42
0
  0
VERTEX
  8
Top_Silk
  10
0.4336
  20
0.1012
  42
0
  0
VERTEX
  8
Top_Silk
  10
0.4322
  20
0.1041
  42
0
  0
VERTEX
  8
Top_Silk
  10
0.4307
  20
0.1055
  42
0
  0
VERTEX
  8
Top_Silk
  10
0.4264
  20
0.107
  42
0
  0
VERTEX
  8
Top_Silk
  10
0.4135
  20
0.107
  42
0
  0
VERTEX
  8
Top_Silk
  10
0.4135
  20
0.0768
  42
0
  0
SEQEND
  0
POLYLINE
  8
Top_Silk
  6
CONTINUOUS
  66
1
  70
0
  40
0.0023
  41
0.0023
  0
VERTEX
  8
Top_Silk
  10
0.4124
  20
0.0926
  42
1
  0
VERTEX
  8
Top_Silk
  10
0.4147
  20
0.0926
  42
1
  0
VERTEX
  8
Top_Silk
  10
0.4124
  20
0.0926
  42
1
  0
SEQEND
  0
POLYLINE
  8
Top_Silk
  6
CONTINUOUS
  66
1
  70
0
  40
0.0023
  41
0.0023
  0
VERTEX
  8
Top_Silk
  10
0.4124
  20
0.0768
  42
1
  0
VERTEX
  8
Top_Silk
  10
0.4147
  20
0.0768
  42
1
  0
VERTEX
  8
Top_Silk
  10
0.4124
  20
0.0768
  42
1
  0
SEQEND
  0
POLYLINE
  8
Top_Silk
  6
CONTINUOUS
  66
1
  70
0
  40
0.0046
  41
0.0046
  0
VERTEX
  8
Top_Silk
  10
0.4236
  20
0.0926
  42
0
  0
VERTEX
  8
Top_Silk
  10
0.4336
  20
0.0768
  42
0
  0
SEQEND
  0
POLYLINE
  8
Top_Silk
  6
CONTINUOUS
  66
1
  70
0
  40
0.0023
  41
0.0023
  0
VERTEX
  8
Top_Silk
  10
0.4224
  20
0.0926
  42
1
  0
VERTEX
  8
Top_Silk
  10
0.4247
  20
0.0926
  42
1
  0
VERTEX
  8
Top_Silk
  10
0.4224
  20
0.0926
  42
1
  0
SEQEND
  0
POLYLINE
  8
Top_Silk
  6
CONTINUOUS
  66
1
  70
0
  40
0.0023
  41
0.0023
  0
VERTEX
  8
Top_Silk
  10
0.4325
  20
0.0768
  42
1
  0
VERTEX
  8
Top_Silk
  10
0.4348
  20
0.0768
  42
1
  0
VERTEX
  8
Top_Silk
  10
0.4325
  20
0.0768
  42
1
  0
SEQEND
  0
POLYLINE
  8
Top_Silk
  6
CONTINUOUS
  66
1
  70
0
  40
0.0046
  41
0.0046
  0
VERTEX
  8
Top_Silk
  10
0.4458
  20
0.1069
  42
0
  0
VERTEX
  8
Top_Silk
  10
0.4615
  20
0.1069
  42
0
  0
VERTEX
  8
Top_Silk
  10
0.4529
  20
0.0954
  42
0
  0
VERTEX
  8
Top_Silk
  10
0.4572
  20
0.0954
  42
0
  0
VERTEX
  8
Top_Silk
  10
0.4601
  20
0.094
  42
0
  0
VERTEX
  8
Top_Silk
  10
0.4615
  20
0.0926
  42
0
  0
VERTEX
  8
Top_Silk
  10
0.463
  20
0.0883
  42
0
  0
VERTEX
  8
Top_Silk
  10
0.463
  20
0.0854
  42
0
  0
VERTEX
  8
Top_Silk
  10
0.4615
  20
0.0811
  42
0
  0
VERTEX
  8
Top_Silk
  10
0.4587
  20
0.0782
  42
0
  0
VERTEX
  8
Top_Silk
  10
0.4544
  20
0.0768
  42
0
  0
VERTEX
  8
Top_Silk
  10
0.45
  20
0.0768
  42
0
  0
VERTEX
  8
Top_Silk
  10
0.4458
  20
0.0782
  42
0
  0
VERTEX
  8
Top_Silk
  10
0.4443
  20
0.0797
  42
0
  0
VERTEX
  8
Top_Silk
  10
0.4429
  20
0.0825
  42
0
  0
SEQEND
  0
POLYLINE
  8
Top_Silk
  6
CONTINUOUS
  66
1
  70
0
  40
0.0023
  41
0.0023
  0
VERTEX
  8
Top_Silk
  10
0.4446
  20
0.1069
  42
1
  0
VERTEX
  8
Top_Silk
  10
0.4469
  20
0.1069
  42
1
  0
VERTEX
  8
Top_Silk
  10
0.4446
  20
0.1069
  42
1
  0
SEQEND
  0
POLYLINE
  8
Top_Silk
  6
CONTINUOUS
  66
1
  70
0
  40
0.0023
  41
0.0023
  0
VERTEX
  8
Top_Silk
  10
0.4417
  20
0.0825
  42
1
  0
VERTEX
  8
Top_Silk
  10
0.444
  20
0.0825
  42
1
  0
VERTEX
  8
Top_Silk
  10
0.4417
  20
0.0825
  42
1
  0
SEQEND
  0
POLYLINE
  8
Top_Silk
  6
CONTINUOUS
  66
1
  70
0
  40
0.0046
  41
0.0046
  0
VERTEX
  8
Top_Silk
  10
0.4722
  20
0.0718
  42
0
  0
VERTEX
  8
Top_Silk
  10
0.4995
  20
0.0718
  42
0
  0
SEQEND
  0
POLYLINE
  8
Top_Silk
  6
CONTINUOUS
  66
1
  70
0
  40
0.0023
  41
0.0023
  0
VERTEX
  8
Top_Silk
  10
0.4711
  20
0.0718
  42
1
  0
VERTEX
  8
Top_Silk
  10
0.4734
  20
0.0718
  42
1
  0
VERTEX
  8
Top_Silk
  10
0.4711
  20
0.0718
  42
1
  0
SEQEND
  0
POLYLINE
  8
Top_Silk
  6
CONTINUOUS
  66
1
  70
0
  40
0.0023
  41
0.0023
  0
VERTEX
  8
Top_Silk
  10
0.4983
  20
0.0718
  42
1
  0
VERTEX
  8
Top_Silk
  10
0.5007
  20
0.0718
  42
1
  0
VERTEX
  8
Top_Silk
  10
0.4983
  20
0.0718
  42
1
  0
SEQEND
  0
POLYLINE
  8
Top_Silk
  6
CONTINUOUS
  66
1
  70
0
  40
0.0046
  41
0.0046
  0
VERTEX
  8
Top_Silk
  10
0.5274
  20
0.0969
  42
0
  0
VERTEX
  8
Top_Silk
  10
0.526
  20
0.0926
  42
0
  0
VERTEX
  8
Top_Silk
  10
0.5231
  20
0.0897
  42
0
  0
VERTEX
  8
Top_Silk
  10
0.5188
  20
0.0883
  42
0
  0
VERTEX
  8
Top_Silk
  10
0.5174
  20
0.0883
  42
0
  0
VERTEX
  8
Top_Silk
  10
0.5131
  20
0.0897
  42
0
  0
VERTEX
  8
Top_Silk
  10
0.5102
  20
0.0926
  42
0
  0
VERTEX
  8
Top_Silk
  10
0.5088
  20
0.0969
  42
0
  0
VERTEX
  8
Top_Silk
  10
0.5088
  20
0.0983
  42
0
  0
VERTEX
  8
Top_Silk
  10
0.5102
  20
0.1026
  42
0
  0
VERTEX
  8
Top_Silk
  10
0.5131
  20
0.1055
  42
0
  0
VERTEX
  8
Top_Silk
  10
0.5174
  20
0.1069
  42
0
  0
VERTEX
  8
Top_Silk
  10
0.5188
  20
0.1069
  42
0
  0
VERTEX
  8
Top_Silk
  10
0.5231
  20
0.1055
  42
0
  0
VERTEX
  8
Top_Silk
  10
0.526
  20
0.1026
  42
0
  0
VERTEX
  8
Top_Silk
  10
0.5274
  20
0.0969
  42
0
  0
VERTEX
  8
Top_Silk
  10
0.5274
  20
0.0897
  42
0
  0
VERTEX
  8
Top_Silk
  10
0.526
  20
0.0825
  42
0
  0
VERTEX
  8
Top_Silk
  10
0.5231
  20
0.0782
  42
0
  0
VERTEX
  8
Top_Silk
  10
0.5188
  20
0.0768
  42
0
  0
VERTEX
  8
Top_Silk
  10
0.516
  20
0.0768
  42
0
  0
VERTEX
  8
Top_Silk
  10
0.5116
  20
0.0782
  42
0
  0
VERTEX
  8
Top_Silk
  10
0.5102
  20
0.0811
  42
0
  0
SEQEND
  0
POLYLINE
  8
Top_Silk
  6
CONTINUOUS
  66
1
  70
0
  40
0.0023
  41
0.0023
  0
VERTEX
  8
Top_Silk
  10
0.5263
  20
0.0969
  42
1
  0
VERTEX
  8
Top_Silk
  10
0.5286
  20
0.0969
  42
1
  0
VERTEX
  8
Top_Silk
  10
0.5263
  20
0.0969
  42
1
  0
SEQEND
  0
POLYLINE
  8
Top_Silk
  6
CONTINUOUS
  66
1
  70
0
  40
0.0023
  41
0.0023
  0
VERTEX
  8
Top_Silk
  10
0.5091
  20
0.0811
  42
1
  0
VERTEX
  8
Top_Silk
  10
0.5114
  20
0.0811
  42
1
  0
VERTEX
  8
Top_Silk
  10
0.5091
  20
0.0811
  42
1
  0
SEQEND
  0
POLYLINE
  8
Top_Silk
  6
CONTINUOUS
  66
1
  70
0
  40
0.0046
  41
0.0046
  0
VERTEX
  8
Top_Silk
  10
0.4886
  20
0.2537
  42
0
  0
VERTEX
  8
Top_Silk
  10
0.5102
  20
0.2537
  42
0
  0
VERTEX
  8
Top_Silk
  10
0.5145
  20
0.2551
  42
0
  0
VERTEX
  8
Top_Silk
  10
0.5173
  20
0.258
  42
0
  0
VERTEX
  8
Top_Silk
  10
0.5188
  20
0.2623
  42
0
  0
VERTEX
  8
Top_Silk
  10
0.5188
  20
0.2652
  42
0
  0
VERTEX
  8
Top_Silk
  10
0.5173
  20
0.2695
  42
0
  0
VERTEX
  8
Top_Silk
  10
0.5145
  20
0.2724
  42
0
  0
VERTEX
  8
Top_Silk
  10
0.5102
  20
0.2738
  42
0
  0
VERTEX
  8
Top_Silk
  10
0.4886
  20
0.2738
  42
0
  0
SEQEND
  0
POLYLINE
  8
Top_Silk
  6
CONTINUOUS
  66
1
  70
0
  40
0.0023
  41
0.0023
  0
VERTEX
  8
Top_Silk
  10
0.4875
  20
0.2537
  42
1
  0
VERTEX
  8
Top_Silk
  10
0.4898
  20
0.2537
  42
1
  0
VERTEX
  8
Top_Silk
  10
0.4875
  20
0.2537
  42
1
  0
SEQEND
  0
POLYLINE
  8
Top_Silk
  6
CONTINUOUS
  66
1
  70
0
  40
0.0023
  41
0.0023
  0
VERTEX
  8
Top_Silk
  10
0.4875
  20
0.2738
  42
1
  0
VERTEX
  8
Top_Silk
  10
0.4898
  20
0.2738
  42
1
  0
VERTEX
  8
Top_Silk
  10
0.4875
  20
0.2738
  42
1
  0
SEQEND
  0
POLYLINE
  8
Top_Silk
  6
CONTINUOUS
  66
1
  70
0
  40
0.0046
  41
0.0046
  0
VERTEX
  8
Top_Silk
  10
0.4944
  20
0.2831
  42
0
  0
VERTEX
  8
Top_Silk
  10
0.493
  20
0.286
  42
0
  0
VERTEX
  8
Top_Silk
  10
0.4887
  20
0.2903
  42
0
  0
VERTEX
  8
Top_Silk
  10
0.5188
  20
0.2903
  42
0
  0
SEQEND
  0
POLYLINE
  8
Top_Silk
  6
CONTINUOUS
  66
1
  70
0
  40
0.0023
  41
0.0023
  0
VERTEX
  8
Top_Silk
  10
0.4933
  20
0.2831
  42
1
  0
VERTEX
  8
Top_Silk
  10
0.4956
  20
0.2831
  42
1
  0
VERTEX
  8
Top_Silk
  10
0.4933
  20
0.2831
  42
1
  0
SEQEND
  0
POLYLINE
  8
Top_Silk
  6
CONTINUOUS
  66
1
  70
0
  40
0.0023
  41
0.0023
  0
VERTEX
  8
Top_Silk
  10
0.5176
  20
0.2903
  42
1
  0
VERTEX
  8
Top_Silk
  10
0.52
  20
0.2903
  42
1
  0
VERTEX
  8
Top_Silk
  10
0.5176
  20
0.2903
  42
1
  0
SEQEND
  0
POLYLINE
  8
Top_Silk
  6
CONTINUOUS
  66
1
  70
0
  40
0.0046
  41
0.0046
  0
VERTEX
  8
Top_Silk
  10
0.4958
  20
0.301
  42
0
  0
VERTEX
  8
Top_Silk
  10
0.4944
  20
0.301
  42
0
  0
VERTEX
  8
Top_Silk
  10
0.4915
  20
0.3024
  42
0
  0
VERTEX
  8
Top_Silk
  10
0.4901
  20
0.3038
  42
0
  0
VERTEX
  8
Top_Silk
  10
0.4887
  20
0.3067
  42
0
  0
VERTEX
  8
Top_Silk
  10
0.4887
  20
0.3125
  42
0
  0
VERTEX
  8
Top_Silk
  10
0.4901
  20
0.3153
  42
0
  0
VERTEX
  8
Top_Silk
  10
0.4915
  20
0.3167
  42
0
  0
VERTEX
  8
Top_Silk
  10
0.4944
  20
0.3182
  42
0
  0
VERTEX
  8
Top_Silk
  10
0.4973
  20
0.3182
  42
0
  0
VERTEX
  8
Top_Silk
  10
0.5002
  20
0.3167
  42
0
  0
VERTEX
  8
Top_Silk
  10
0.5044
  20
0.3139
  42
0
  0
VERTEX
  8
Top_Silk
  10
0.5188
  20
0.2995
  42
0
  0
VERTEX
  8
Top_Silk
  10
0.5188
  20
0.3196
  42
0
  0
SEQEND
  0
POLYLINE
  8
Top_Silk
  6
CONTINUOUS
  66
1
  70
0
  40
0.0023
  41
0.0023
  0
VERTEX
  8
Top_Silk
  10
0.4947
  20
0.301
  42
1
  0
VERTEX
  8
Top_Silk
  10
0.497
  20
0.301
  42
1
  0
VERTEX
  8
Top_Silk
  10
0.4947
  20
0.301
  42
1
  0
SEQEND
  0
POLYLINE
  8
Top_Silk
  6
CONTINUOUS
  66
1
  70
0
  40
0.0023
  41
0.0023
  0
VERTEX
  8
Top_Silk
  10
0.5176
  20
0.3196
  42
1
  0
VERTEX
  8
Top_Silk
  10
0.52
  20
0.3196
  42
1
  0
VERTEX
  8
Top_Silk
  10
0.5176
  20
0.3196
  42
1
  0
SEQEND
  0
POLYLINE
  8
Top_Silk
  6
CONTINUOUS
  66
1
  70
0
  40
0.0046
  41
0.0046
  0
VERTEX
  8
Top_Silk
  10
0.5238
  20
0.3289
  42
0
  0
VERTEX
  8
Top_Silk
  10
0.5238
  20
0.3562
  42
0
  0
SEQEND
  0
POLYLINE
  8
Top_Silk
  6
CONTINUOUS
  66
1
  70
0
  40
0.0023
  41
0.0023
  0
VERTEX
  8
Top_Silk
  10
0.5226
  20
0.3289
  42
1
  0
VERTEX
  8
Top_Silk
  10
0.5249
  20
0.3289
  42
1
  0
VERTEX
  8
Top_Silk
  10
0.5226
  20
0.3289
  42
1
  0
SEQEND
  0
POLYLINE
  8
Top_Silk
  6
CONTINUOUS
  66
1
  70
0
  40
0.0023
  41
0.0023
  0
VERTEX
  8
Top_Silk
  10
0.5226
  20
0.3562
  42
1
  0
VERTEX
  8
Top_Silk
  10
0.5249
  20
0.3562
  42
1
  0
VERTEX
  8
Top_Silk
  10
0.5226
  20
0.3562
  42
1
  0
SEQEND
  0
POLYLINE
  8
Top_Silk
  6
CONTINUOUS
  66
1
  70
0
  40
0.0046
  41
0.0046
  0
VERTEX
  8
Top_Silk
  10
0.4987
  20
0.3841
  42
0
  0
VERTEX
  8
Top_Silk
  10
0.503
  20
0.3826
  42
0
  0
VERTEX
  8
Top_Silk
  10
0.5059
  20
0.3798
  42
0
  0
VERTEX
  8
Top_Silk
  10
0.5073
  20
0.3755
  42
0
  0
VERTEX
  8
Top_Silk
  10
0.5073
  20
0.374
  42
0
  0
VERTEX
  8
Top_Silk
  10
0.5059
  20
0.3697
  42
0
  0
VERTEX
  8
Top_Silk
  10
0.503
  20
0.3669
  42
0
  0
VERTEX
  8
Top_Silk
  10
0.4987
  20
0.3654
  42
0
  0
VERTEX
  8
Top_Silk
  10
0.4973
  20
0.3654
  42
0
  0
VERTEX
  8
Top_Silk
  10
0.493
  20
0.3669
  42
0
  0
VERTEX
  8
Top_Silk
  10
0.4901
  20
0.3697
  42
0
  0
VERTEX
  8
Top_Silk
  10
0.4887
  20
0.374
  42
0
  0
VERTEX
  8
Top_Silk
  10
0.4887
  20
0.3755
  42
0
  0
VERTEX
  8
Top_Silk
  10
0.4901
  20
0.3798
  42
0
  0
VERTEX
  8
Top_Silk
  10
0.493
  20
0.3826
  42
0
  0
VERTEX
  8
Top_Silk
  10
0.4987
  20
0.3841
  42
0
  0
VERTEX
  8
Top_Silk
  10
0.5059
  20
0.3841
  42
0
  0
VERTEX
  8
Top_Silk
  10
0.5131
  20
0.3826
  42
0
  0
VERTEX
  8
Top_Silk
  10
0.5174
  20
0.3798
  42
0
  0
VERTEX
  8
Top_Silk
  10
0.5188
  20
0.3755
  42
0
  0
VERTEX
  8
Top_Silk
  10
0.5188
  20
0.3726
  42
0
  0
VERTEX
  8
Top_Silk
  10
0.5174
  20
0.3683
  42
0
  0
VERTEX
  8
Top_Silk
  10
0.5145
  20
0.3669
  42
0
  0
SEQEND
  0
POLYLINE
  8
Top_Silk
  6
CONTINUOUS
  66
1
  70
0
  40
0.0023
  41
0.0023
  0
VERTEX
  8
Top_Silk
  10
0.4975
  20
0.3841
  42
1
  0
VERTEX
  8
Top_Silk
  10
0.4999
  20
0.3841
  42
1
  0
VERTEX
  8
Top_Silk
  10
0.4975
  20
0.3841
  42
1
  0
SEQEND
  0
POLYLINE
  8
Top_Silk
  6
CONTINUOUS
  66
1
  70
0
  40
0.0023
  41
0.0023
  0
VERTEX
  8
Top_Silk
  10
0.5133
  20
0.3669
  42
1
  0
VERTEX
  8
Top_Silk
  10
0.5156
  20
0.3669
  42
1
  0
VERTEX
  8
Top_Silk
  10
0.5133
  20
0.3669
  42
1
  0
SEQEND
  0
POLYLINE
  8
Top_Silk
  6
CONTINUOUS
  66
1
  70
0
  40
0.0046
  41
0.0046
  0
VERTEX
  8
Top_Silk
  10
0.3367
  20
0.4265
  42
0
  0
VERTEX
  8
Top_Silk
  10
0.3367
  20
0.405
  42
0
  0
VERTEX
  8
Top_Silk
  10
0.3382
  20
0.4007
  42
0
  0
VERTEX
  8
Top_Silk
  10
0.3411
  20
0.3978
  42
0
  0
VERTEX
  8
Top_Silk
  10
0.3454
  20
0.3964
  42
0
  0
VERTEX
  8
Top_Silk
  10
0.3482
  20
0.3964
  42
0
  0
VERTEX
  8
Top_Silk
  10
0.3525
  20
0.3978
  42
0
  0
VERTEX
  8
Top_Silk
  10
0.3554
  20
0.4007
  42
0
  0
VERTEX
  8
Top_Silk
  10
0.3568
  20
0.405
  42
0
  0
VERTEX
  8
Top_Silk
  10
0.3568
  20
0.4265
  42
0
  0
SEQEND
  0
POLYLINE
  8
Top_Silk
  6
CONTINUOUS
  66
1
  70
0
  40
0.0023
  41
0.0023
  0
VERTEX
  8
Top_Silk
  10
0.3356
  20
0.4265
  42
1
  0
VERTEX
  8
Top_Silk
  10
0.3379
  20
0.4265
  42
1
  0
VERTEX
  8
Top_Silk
  10
0.3356
  20
0.4265
  42
1
  0
SEQEND
  0
POLYLINE
  8
Top_Silk
  6
CONTINUOUS
  66
1
  70
0
  40
0.0023
  41
0.0023
  0
VERTEX
  8
Top_Silk
  10
0.3557
  20
0.4265
  42
1
  0
VERTEX
  8
Top_Silk
  10
0.358
  20
0.4265
  42
1
  0
VERTEX
  8
Top_Silk
  10
0.3557
  20
0.4265
  42
1
  0
SEQEND
  0
POLYLINE
  8
Top_Silk
  6
CONTINUOUS
  66
1
  70
0
  40
0.0046
  41
0.0046
  0
VERTEX
  8
Top_Silk
  10
0.3676
  20
0.4193
  42
0
  0
VERTEX
  8
Top_Silk
  10
0.3676
  20
0.4207
  42
0
  0
VERTEX
  8
Top_Silk
  10
0.369
  20
0.4236
  42
0
  0
VERTEX
  8
Top_Silk
  10
0.3704
  20
0.4251
  42
0
  0
VERTEX
  8
Top_Silk
  10
0.3733
  20
0.4265
  42
0
  0
VERTEX
  8
Top_Silk
  10
0.379
  20
0.4265
  42
0
  0
VERTEX
  8
Top_Silk
  10
0.3819
  20
0.4251
  42
0
  0
VERTEX
  8
Top_Silk
  10
0.3833
  20
0.4236
  42
0
  0
VERTEX
  8
Top_Silk
  10
0.3848
  20
0.4207
  42
0
  0
VERTEX
  8
Top_Silk
  10
0.3848
  20
0.4179
  42
0
  0
VERTEX
  8
Top_Silk
  10
0.3833
  20
0.415
  42
0
  0
VERTEX
  8
Top_Silk
  10
0.3805
  20
0.4107
  42
0
  0
VERTEX
  8
Top_Silk
  10
0.3661
  20
0.3964
  42
0
  0
VERTEX
  8
Top_Silk
  10
0.3862
  20
0.3964
  42
0
  0
SEQEND
  0
POLYLINE
  8
Top_Silk
  6
CONTINUOUS
  66
1
  70
0
  40
0.0023
  41
0.0023
  0
VERTEX
  8
Top_Silk
  10
0.3664
  20
0.4193
  42
1
  0
VERTEX
  8
Top_Silk
  10
0.3687
  20
0.4193
  42
1
  0
VERTEX
  8
Top_Silk
  10
0.3664
  20
0.4193
  42
1
  0
SEQEND
  0
POLYLINE
  8
Top_Silk
  6
CONTINUOUS
  66
1
  70
0
  40
0.0023
  41
0.0023
  0
VERTEX
  8
Top_Silk
  10
0.385
  20
0.3964
  42
1
  0
VERTEX
  8
Top_Silk
  10
0.3874
  20
0.3964
  42
1
  0
VERTEX
  8
Top_Silk
  10
0.385
  20
0.3964
  42
1
  0
SEQEND
  0
POLYLINE
  8
Top_Silk
  6
CONTINUOUS
  66
1
  70
0
  40
0.0046
  41
0.0046
  0
VERTEX
  8
Top_Silk
  10
0.3955
  20
0.3914
  42
0
  0
VERTEX
  8
Top_Silk
  10
0.4227
  20
0.3914
  42
0
  0
SEQEND
  0
POLYLINE
  8
Top_Silk
  6
CONTINUOUS
  66
1
  70
0
  40
0.0023
  41
0.0023
  0
VERTEX
  8
Top_Silk
  10
0.3943
  20
0.3914
  42
1
  0
VERTEX
  8
Top_Silk
  10
0.3966
  20
0.3914
  42
1
  0
VERTEX
  8
Top_Silk
  10
0.3943
  20
0.3914
  42
1
  0
SEQEND
  0
POLYLINE
  8
Top_Silk
  6
CONTINUOUS
  66
1
  70
0
  40
0.0023
  41
0.0023
  0
VERTEX
  8
Top_Silk
  10
0.4216
  20
0.3914
  42
1
  0
VERTEX
  8
Top_Silk
  10
0.4239
  20
0.3914
  42
1
  0
VERTEX
  8
Top_Silk
  10
0.4216
  20
0.3914
  42
1
  0
SEQEND
  0
POLYLINE
  8
Top_Silk
  6
CONTINUOUS
  66
1
  70
0
  40
0.0046
  41
0.0046
  0
VERTEX
  8
Top_Silk
  10
0.4507
  20
0.4165
  42
0
  0
VERTEX
  8
Top_Silk
  10
0.4492
  20
0.4122
  42
0
  0
VERTEX
  8
Top_Silk
  10
0.4463
  20
0.4093
  42
0
  0
VERTEX
  8
Top_Silk
  10
0.442
  20
0.4078
  42
0
  0
VERTEX
  8
Top_Silk
  10
0.4406
  20
0.4078
  42
0
  0
VERTEX
  8
Top_Silk
  10
0.4363
  20
0.4093
  42
0
  0
VERTEX
  8
Top_Silk
  10
0.4334
  20
0.4122
  42
0
  0
VERTEX
  8
Top_Silk
  10
0.432
  20
0.4165
  42
0
  0
VERTEX
  8
Top_Silk
  10
0.432
  20
0.4179
  42
0
  0
VERTEX
  8
Top_Silk
  10
0.4334
  20
0.4222
  42
0
  0
VERTEX
  8
Top_Silk
  10
0.4363
  20
0.4251
  42
0
  0
VERTEX
  8
Top_Silk
  10
0.4406
  20
0.4265
  42
0
  0
VERTEX
  8
Top_Silk
  10
0.442
  20
0.4265
  42
0
  0
VERTEX
  8
Top_Silk
  10
0.4463
  20
0.4251
  42
0
  0
VERTEX
  8
Top_Silk
  10
0.4492
  20
0.4222
  42
0
  0
VERTEX
  8
Top_Silk
  10
0.4507
  20
0.4165
  42
0
  0
VERTEX
  8
Top_Silk
  10
0.4507
  20
0.4093
  42
0
  0
VERTEX
  8
Top_Silk
  10
0.4492
  20
0.4021
  42
0
  0
VERTEX
  8
Top_Silk
  10
0.4463
  20
0.3978
  42
0
  0
VERTEX
  8
Top_Silk
  10
0.442
  20
0.3964
  42
0
  0
VERTEX
  8
Top_Silk
  10
0.4392
  20
0.3964
  42
0
  0
VERTEX
  8
Top_Silk
  10
0.4349
  20
0.3978
  42
0
  0
VERTEX
  8
Top_Silk
  10
0.4334
  20
0.4007
  42
0
  0
SEQEND
  0
POLYLINE
  8
Top_Silk
  6
CONTINUOUS
  66
1
  70
0
  40
0.0023
  41
0.0023
  0
VERTEX
  8
Top_Silk
  10
0.4495
  20
0.4165
  42
1
  0
VERTEX
  8
Top_Silk
  10
0.4518
  20
0.4165
  42
1
  0
VERTEX
  8
Top_Silk
  10
0.4495
  20
0.4165
  42
1
  0
SEQEND
  0
POLYLINE
  8
Top_Silk
  6
CONTINUOUS
  66
1
  70
0
  40
0.0023
  41
0.0023
  0
VERTEX
  8
Top_Silk
  10
0.4323
  20
0.4007
  42
1
  0
VERTEX
  8
Top_Silk
  10
0.4346
  20
0.4007
  42
1
  0
VERTEX
  8
Top_Silk
  10
0.4323
  20
0.4007
  42
1
  0
SEQEND
  0
POLYLINE
  8
Top_Mask
  6
CONTINUOUS
  66
1
  70
0
  40
0.0
  41
0.0
  0
VERTEX
  8
Top_Mask
  10
0.6024
  20
0.5098
  42
0
  0
VERTEX
  8
Top_Mask
  10
0.5709
  20
0.5098
  42
0
  0
VERTEX
  8
Top_Mask
  10
0.5709
  20
0.4744
  42
0
  0
VERTEX
  8
Top_Mask
  10
0.6024
  20
0.4744
  42
0
  0
VERTEX
  8
Top_Mask
  10
0.6024
  20
0.5098
  42
0
  0
SEQEND
  0
POLYLINE
  8
Top_Mask
  6
CONTINUOUS
  66
1
  70
0
  40
0.0
  41
0.0
  0
VERTEX
  8
Top_Mask
  10
0.6772
  20
0.5098
  42
0
  0
VERTEX
  8
Top_Mask
  10
0.6457
  20
0.5098
  42
0
  0
VERTEX
  8
Top_Mask
  10
0.6457
  20
0.4744
  42
0
  0
VERTEX
  8
Top_Mask
  10
0.6772
  20
0.4744
  42
0
  0
VERTEX
  8
Top_Mask
  10
0.6772
  20
0.5098
  42
0
  0
SEQEND
  0
POLYLINE
  8
Top_Mask
  6
CONTINUOUS
  66
1
  70
0
  40
0.0
  41
0.0
  0
VERTEX
  8
Top_Mask
  10
0.6398
  20
0.5925
  42
0
  0
VERTEX
  8
Top_Mask
  10
0.6083
  20
0.5925
  42
0
  0
VERTEX
  8
Top_Mask
  10
0.6083
  20
0.5571
  42
0
  0
VERTEX
  8
Top_Mask
  10
0.6398
  20
0.5571
  42
0
  0
VERTEX
  8
Top_Mask
  10
0.6398
  20
0.5925
  42
0
  0
SEQEND
  0
POLYLINE
  8
Top_Mask
  6
CONTINUOUS
  66
1
  70
0
  40
0.0
  41
0.0
  0
VERTEX
  8
Top_Mask
  10
0.2224
  20
0.2205
  42
0
  0
VERTEX
  8
Top_Mask
  10
0.2657
  20
0.2205
  42
0
  0
VERTEX
  8
Top_Mask
  10
0.2657
  20
0.2598
  42
0
  0
VERTEX
  8
Top_Mask
  10
0.2224
  20
0.2598
  42
0
  0
VERTEX
  8
Top_Mask
  10
0.2224
  20
0.2205
  42
0
  0
SEQEND
  0
POLYLINE
  8
Top_Mask
  6
CONTINUOUS
  66
1
  70
0
  40
0.0
  41
0.0
  0
VERTEX
  8
Top_Mask
  10
0.1555
  20
0.2205
  42
0
  0
VERTEX
  8
Top_Mask
  10
0.1988
  20
0.2205
  42
0
  0
VERTEX
  8
Top_Mask
  10
0.1988
  20
0.2598
  42
0
  0
VERTEX
  8
Top_Mask
  10
0.1555
  20
0.2598
  42
0
  0
VERTEX
  8
Top_Mask
  10
0.1555
  20
0.2205
  42
0
  0
SEQEND
  0
POLYLINE
  8
Top_Mask
  6
CONTINUOUS
  66
1
  70
0
  40
0.0
  41
0.0
  0
VERTEX
  8
Top_Mask
  10
0.6083
  20
0.1457
  42
0
  0
VERTEX
  8
Top_Mask
  10
0.6516
  20
0.1457
  42
0
  0
VERTEX
  8
Top_Mask
  10
0.6516
  20
0.185
  42
0
  0
VERTEX
  8
Top_Mask
  10
0.6083
  20
0.185
  42
0
  0
VERTEX
  8
Top_Mask
  10
0.6083
  20
0.1457
  42
0
  0
SEQEND
  0
POLYLINE
  8
Top_Mask
  6
CONTINUOUS
  66
1
  70
0
  40
0.0
  41
0.0
  0
VERTEX
  8
Top_Mask
  10
0.5413
  20
0.1457
  42
0
  0
VERTEX
  8
Top_Mask
  10
0.5846
  20
0.1457
  42
0
  0
VERTEX
  8
Top_Mask
  10
0.5846
  20
0.185
  42
0
  0
VERTEX
  8
Top_Mask
  10
0.5413
  20
0.185
  42
0
  0
VERTEX
  8
Top_Mask
  10
0.5413
  20
0.1457
  42
0
  0
SEQEND
  0
POLYLINE
  8
Top_Mask
  6
CONTINUOUS
  66
1
  70
0
  40
0.0
  41
0.0
  0
VERTEX
  8
Top_Mask
  10
0.1772
  20
0.437
  42
0
  0
VERTEX
  8
Top_Mask
  10
0.2402
  20
0.437
  42
0
  0
VERTEX
  8
Top_Mask
  10
0.2402
  20
0.4921
  42
0
  0
VERTEX
  8
Top_Mask
  10
0.1772
  20
0.4921
  42
0
  0
VERTEX
  8
Top_Mask
  10
0.1772
  20
0.437
  42
0
  0
SEQEND
  0
POLYLINE
  8
Top_Mask
  6
CONTINUOUS
  66
1
  70
0
  40
0.0
  41
0.0
  0
VERTEX
  8
Top_Mask
  10
0.1772
  20
0.3268
  42
0
  0
VERTEX
  8
Top_Mask
  10
0.2402
  20
0.3268
  42
0
  0
VERTEX
  8
Top_Mask
  10
0.2402
  20
0.3819
  42
0
  0
VERTEX
  8
Top_Mask
  10
0.1772
  20
0.3819
  42
0
  0
VERTEX
  8
Top_Mask
  10
0.1772
  20
0.3268
  42
0
  0
SEQEND
  0
POLYLINE
  8
Top_Mask
  6
CONTINUOUS
  66
1
  70
0
  40
0.0
  41
0.0
  0
VERTEX
  8
Top_Mask
  10
0.2717
  20
0.5098
  42
0
  0
VERTEX
  8
Top_Mask
  10
0.2717
  20
0.4665
  42
0
  0
VERTEX
  8
Top_Mask
  10
0.311
  20
0.4665
  42
0
  0
VERTEX
  8
Top_Mask
  10
0.311
  20
0.5098
  42
0
  0
VERTEX
  8
Top_Mask
  10
0.2717
  20
0.5098
  42
0
  0
SEQEND
  0
POLYLINE
  8
Top_Mask
  6
CONTINUOUS
  66
1
  70
0
  40
0.0
  41
0.0
  0
VERTEX
  8
Top_Mask
  10
0.2717
  20
0.5768
  42
0
  0
VERTEX
  8
Top_Mask
  10
0.2717
  20
0.5335
  42
0
  0
VERTEX
  8
Top_Mask
  10
0.311
  20
0.5335
  42
0
  0
VERTEX
  8
Top_Mask
  10
0.311
  20
0.5768
  42
0
  0
VERTEX
  8
Top_Mask
  10
0.2717
  20
0.5768
  42
0
  0
SEQEND
  0
POLYLINE
  8
Top_Mask
  6
CONTINUOUS
  66
1
  70
0
  40
0.0
  41
0.0
  0
VERTEX
  8
Top_Mask
  10
0.3504
  20
0.5098
  42
0
  0
VERTEX
  8
Top_Mask
  10
0.3504
  20
0.4665
  42
0
  0
VERTEX
  8
Top_Mask
  10
0.3898
  20
0.4665
  42
0
  0
VERTEX
  8
Top_Mask
  10
0.3898
  20
0.5098
  42
0
  0
VERTEX
  8
Top_Mask
  10
0.3504
  20
0.5098
  42
0
  0
SEQEND
  0
POLYLINE
  8
Top_Mask
  6
CONTINUOUS
  66
1
  70
0
  40
0.0
  41
0.0
  0
VERTEX
  8
Top_Mask
  10
0.3504
  20
0.5768
  42
0
  0
VERTEX
  8
Top_Mask
  10
0.3504
  20
0.5335
  42
0
  0
VERTEX
  8
Top_Mask
  10
0.3898
  20
0.5335
  42
0
  0
VERTEX
  8
Top_Mask
  10
0.3898
  20
0.5768
  42
0
  0
VERTEX
  8
Top_Mask
  10
0.3504
  20
0.5768
  42
0
  0
SEQEND
  0
SOLID
  8
Top_Mask
  10
0.0217
  20
0.5681
  11
0.0965
  21
0.5681
  12
0.0217
  22
0.4933
  13
0.0965
  23
0.4933
  0
POLYLINE
  8
Top_Mask
  6
CONTINUOUS
  66
1
  70
0
  40
0.0374
  41
0.0374
  0
VERTEX
  8
Top_Mask
  10
0.0778
  20
0.4307
  42
1
  0
VERTEX
  8
Top_Mask
  10
0.0404
  20
0.4307
  42
1
  0
VERTEX
  8
Top_Mask
  10
0.0778
  20
0.4307
  42
1
  0
SEQEND
  0
POLYLINE
  8
Top_Mask
  6
CONTINUOUS
  66
1
  70
0
  40
0.0374
  41
0.0374
  0
VERTEX
  8
Top_Mask
  10
0.0404
  20
0.4307
  42
1
  0
VERTEX
  8
Top_Mask
  10
0.0778
  20
0.4307
  42
1
  0
VERTEX
  8
Top_Mask
  10
0.0404
  20
0.4307
  42
1
  0
SEQEND
  0
POLYLINE
  8
Top_Mask
  6
CONTINUOUS
  66
1
  70
0
  40
0.0374
  41
0.0374
  0
VERTEX
  8
Top_Mask
  10
0.0778
  20
0.3307
  42
1
  0
VERTEX
  8
Top_Mask
  10
0.0404
  20
0.3307
  42
1
  0
VERTEX
  8
Top_Mask
  10
0.0778
  20
0.3307
  42
1
  0
SEQEND
  0
POLYLINE
  8
Top_Mask
  6
CONTINUOUS
  66
1
  70
0
  40
0.0374
  41
0.0374
  0
VERTEX
  8
Top_Mask
  10
0.0404
  20
0.3307
  42
1
  0
VERTEX
  8
Top_Mask
  10
0.0778
  20
0.3307
  42
1
  0
VERTEX
  8
Top_Mask
  10
0.0404
  20
0.3307
  42
1
  0
SEQEND
  0
POLYLINE
  8
Top_Mask
  6
CONTINUOUS
  66
1
  70
0
  40
0.0374
  41
0.0374
  0
VERTEX
  8
Top_Mask
  10
0.0778
  20
0.2307
  42
1
  0
VERTEX
  8
Top_Mask
  10
0.0404
  20
0.2307
  42
1
  0
VERTEX
  8
Top_Mask
  10
0.0778
  20
0.2307
  42
1
  0
SEQEND
  0
POLYLINE
  8
Top_Mask
  6
CONTINUOUS
  66
1
  70
0
  40
0.0374
  41
0.0374
  0
VERTEX
  8
Top_Mask
  10
0.0404
  20
0.2307
  42
1
  0
VERTEX
  8
Top_Mask
  10
0.0778
  20
0.2307
  42
1
  0
VERTEX
  8
Top_Mask
  10
0.0404
  20
0.2307
  42
1
  0
SEQEND
  0
POLYLINE
  8
Top_Mask
  6
CONTINUOUS
  66
1
  70
0
  40
0.0374
  41
0.0374
  0
VERTEX
  8
Top_Mask
  10
0.0778
  20
0.1307
  42
1
  0
VERTEX
  8
Top_Mask
  10
0.0404
  20
0.1307
  42
1
  0
VERTEX
  8
Top_Mask
  10
0.0778
  20
0.1307
  42
1
  0
SEQEND
  0
POLYLINE
  8
Top_Mask
  6
CONTINUOUS
  66
1
  70
0
  40
0.0374
  41
0.0374
  0
VERTEX
  8
Top_Mask
  10
0.0404
  20
0.1307
  42
1
  0
VERTEX
  8
Top_Mask
  10
0.0778
  20
0.1307
  42
1
  0
VERTEX
  8
Top_Mask
  10
0.0404
  20
0.1307
  42
1
  0
SEQEND
  0
POLYLINE
  8
Top_Mask
  6
CONTINUOUS
  66
1
  70
0
  40
0.0
  41
0.0
  0
VERTEX
  8
Top_Mask
  10
0.4685
  20
0.5335
  42
0
  0
VERTEX
  8
Top_Mask
  10
0.4685
  20
0.5768
  42
0
  0
VERTEX
  8
Top_Mask
  10
0.4291
  20
0.5768
  42
0
  0
VERTEX
  8
Top_Mask
  10
0.4291
  20
0.5335
  42
0
  0
VERTEX
  8
Top_Mask
  10
0.4685
  20
0.5335
  42
0
  0
SEQEND
  0
POLYLINE
  8
Top_Mask
  6
CONTINUOUS
  66
1
  70
0
  40
0.0
  41
0.0
  0
VERTEX
  8
Top_Mask
  10
0.4685
  20
0.4665
  42
0
  0
VERTEX
  8
Top_Mask
  10
0.4685
  20
0.5098
  42
0
  0
VERTEX
  8
Top_Mask
  10
0.4291
  20
0.5098
  42
0
  0
VERTEX
  8
Top_Mask
  10
0.4291
  20
0.4665
  42
0
  0
VERTEX
  8
Top_Mask
  10
0.4685
  20
0.4665
  42
0
  0
SEQEND
  0
POLYLINE
  8
Top_Mask
  6
CONTINUOUS
  66
1
  70
0
  40
0.0
  41
0.0
  0
VERTEX
  8
Top_Mask
  10
0.5079
  20
0.5098
  42
0
  0
VERTEX
  8
Top_Mask
  10
0.5079
  20
0.4665
  42
0
  0
VERTEX
  8
Top_Mask
  10
0.5472
  20
0.4665
  42
0
  0
VERTEX
  8
Top_Mask
  10
0.5472
  20
0.5098
  42
0
  0
VERTEX
  8
Top_Mask
  10
0.5079
  20
0.5098
  42
0
  0
SEQEND
  0
POLYLINE
  8
Top_Mask
  6
CONTINUOUS
  66
1
  70
0
  40
0.0
  41
0.0
  0
VERTEX
  8
Top_Mask
  10
0.5079
  20
0.5768
  42
0
  0
VERTEX
  8
Top_Mask
  10
0.5079
  20
0.5335
  42
0
  0
VERTEX
  8
Top_Mask
  10
0.5472
  20
0.5335
  42
0
  0
VERTEX
  8
Top_Mask
  10
0.5472
  20
0.5768
  42
0
  0
VERTEX
  8
Top_Mask
  10
0.5079
  20
0.5768
  42
0
  0
SEQEND
  0
POLYLINE
  8
Top_Mask
  6
CONTINUOUS
  66
1
  70
0
  40
0.0
  41
0.0
  0
VERTEX
  8
Top_Mask
  10
0.5846
  20
0.1063
  42
0
  0
VERTEX
  8
Top_Mask
  10
0.5413
  20
0.1063
  42
0
  0
VERTEX
  8
Top_Mask
  10
0.5413
  20
0.0669
  42
0
  0
VERTEX
  8
Top_Mask
  10
0.5846
  20
0.0669
  42
0
  0
VERTEX
  8
Top_Mask
  10
0.5846
  20
0.1063
  42
0
  0
SEQEND
  0
POLYLINE
  8
Top_Mask
  6
CONTINUOUS
  66
1
  70
0
  40
0.0
  41
0.0
  0
VERTEX
  8
Top_Mask
  10
0.6516
  20
0.1063
  42
0
  0
VERTEX
  8
Top_Mask
  10
0.6083
  20
0.1063
  42
0
  0
VERTEX
  8
Top_Mask
  10
0.6083
  20
0.0669
  42
0
  0
VERTEX
  8
Top_Mask
  10
0.6516
  20
0.0669
  42
0
  0
VERTEX
  8
Top_Mask
  10
0.6516
  20
0.1063
  42
0
  0
SEQEND
  0
POLYLINE
  8
Top_Mask
  6
CONTINUOUS
  66
1
  70
0
  40
0.0
  41
0.0
  0
VERTEX
  8
Top_Mask
  10
0.562
  20
0.2913
  42
0
  0
VERTEX
  8
Top_Mask
  10
0.5404
  20
0.2913
  42
0
  0
VERTEX
  8
Top_Mask
  10
0.5404
  20
0.2441
  42
0
  0
VERTEX
  8
Top_Mask
  10
0.562
  20
0.2441
  42
0
  0
VERTEX
  8
Top_Mask
  10
0.562
  20
0.2913
  42
0
  0
SEQEND
  0
POLYLINE
  8
Top_Mask
  6
CONTINUOUS
  66
1
  70
0
  40
0.0
  41
0.0
  0
VERTEX
  8
Top_Mask
  10
0.5994
  20
0.2913
  42
0
  0
VERTEX
  8
Top_Mask
  10
0.5778
  20
0.2913
  42
0
  0
VERTEX
  8
Top_Mask
  10
0.5778
  20
0.2441
  42
0
  0
VERTEX
  8
Top_Mask
  10
0.5994
  20
0.2441
  42
0
  0
VERTEX
  8
Top_Mask
  10
0.5994
  20
0.2913
  42
0
  0
SEQEND
  0
POLYLINE
  8
Top_Mask
  6
CONTINUOUS
  66
1
  70
0
  40
0.0
  41
0.0
  0
VERTEX
  8
Top_Mask
  10
0.6368
  20
0.2913
  42
0
  0
VERTEX
  8
Top_Mask
  10
0.6152
  20
0.2913
  42
0
  0
VERTEX
  8
Top_Mask
  10
0.6152
  20
0.2441
  42
0
  0
VERTEX
  8
Top_Mask
  10
0.6368
  20
0.2441
  42
0
  0
VERTEX
  8
Top_Mask
  10
0.6368
  20
0.2913
  42
0
  0
SEQEND
  0
POLYLINE
  8
Top_Mask
  6
CONTINUOUS
  66
1
  70
0
  40
0.0
  41
0.0
  0
VERTEX
  8
Top_Mask
  10
0.6368
  20
0.3937
  42
0
  0
VERTEX
  8
Top_Mask
  10
0.6152
  20
0.3937
  42
0
  0
VERTEX
  8
Top_Mask
  10
0.6152
  20
0.3465
  42
0
  0
VERTEX
  8
Top_Mask
  10
0.6368
  20
0.3465
  42
0
  0
VERTEX
  8
Top_Mask
  10
0.6368
  20
0.3937
  42
0
  0
SEQEND
  0
POLYLINE
  8
Top_Mask
  6
CONTINUOUS
  66
1
  70
0
  40
0.0
  41
0.0
  0
VERTEX
  8
Top_Mask
  10
0.562
  20
0.3937
  42
0
  0
VERTEX
  8
Top_Mask
  10
0.5404
  20
0.3937
  42
0
  0
VERTEX
  8
Top_Mask
  10
0.5404
  20
0.3465
  42
0
  0
VERTEX
  8
Top_Mask
  10
0.562
  20
0.3465
  42
0
  0
VERTEX
  8
Top_Mask
  10
0.562
  20
0.3937
  42
0
  0
SEQEND
  0
POLYLINE
  8
Top_Mask
  6
CONTINUOUS
  66
1
  70
0
  40
0.0
  41
0.0
  0
VERTEX
  8
Top_Mask
  10
0.3425
  20
0.3504
  42
0
  0
VERTEX
  8
Top_Mask
  10
0.3425
  20
0.3661
  42
0
  0
VERTEX
  8
Top_Mask
  10
0.3268
  20
0.3661
  42
0
  0
VERTEX
  8
Top_Mask
  10
0.3268
  20
0.3504
  42
0
  0
VERTEX
  8
Top_Mask
  10
0.3425
  20
0.3504
  42
0
  0
SEQEND
  0
POLYLINE
  8
Top_Mask
  6
CONTINUOUS
  66
1
  70
0
  40
0.0
  41
0.0
  0
VERTEX
  8
Top_Mask
  10
0.3819
  20
0.3504
  42
0
  0
VERTEX
  8
Top_Mask
  10
0.3819
  20
0.3661
  42
0
  0
VERTEX
  8
Top_Mask
  10
0.3661
  20
0.3661
  42
0
  0
VERTEX
  8
Top_Mask
  10
0.3661
  20
0.3504
  42
0
  0
VERTEX
  8
Top_Mask
  10
0.3819
  20
0.3504
  42
0
  0
SEQEND
  0
POLYLINE
  8
Top_Mask
  6
CONTINUOUS
  66
1
  70
0
  40
0.0
  41
0.0
  0
VERTEX
  8
Top_Mask
  10
0.4213
  20
0.3504
  42
0
  0
VERTEX
  8
Top_Mask
  10
0.4213
  20
0.3661
  42
0
  0
VERTEX
  8
Top_Mask
  10
0.4055
  20
0.3661
  42
0
  0
VERTEX
  8
Top_Mask
  10
0.4055
  20
0.3504
  42
0
  0
VERTEX
  8
Top_Mask
  10
0.4213
  20
0.3504
  42
0
  0
SEQEND
  0
POLYLINE
  8
Top_Mask
  6
CONTINUOUS
  66
1
  70
0
  40
0.0
  41
0.0
  0
VERTEX
  8
Top_Mask
  10
0.4606
  20
0.3504
  42
0
  0
VERTEX
  8
Top_Mask
  10
0.4606
  20
0.3661
  42
0
  0
VERTEX
  8
Top_Mask
  10
0.4449
  20
0.3661
  42
0
  0
VERTEX
  8
Top_Mask
  10
0.4449
  20
0.3504
  42
0
  0
VERTEX
  8
Top_Mask
  10
0.4606
  20
0.3504
  42
0
  0
SEQEND
  0
POLYLINE
  8
Top_Mask
  6
CONTINUOUS
  66
1
  70
0
  40
0.0
  41
0.0
  0
VERTEX
  8
Top_Mask
  10
0.4606
  20
0.311
  42
0
  0
VERTEX
  8
Top_Mask
  10
0.4606
  20
0.3268
  42
0
  0
VERTEX
  8
Top_Mask
  10
0.4449
  20
0.3268
  42
0
  0
VERTEX
  8
Top_Mask
  10
0.4449
  20
0.311
  42
0
  0
VERTEX
  8
Top_Mask
  10
0.4606
  20
0.311
  42
0
  0
SEQEND
  0
POLYLINE
  8
Top_Mask
  6
CONTINUOUS
  66
1
  70
0
  40
0.0
  41
0.0
  0
VERTEX
  8
Top_Mask
  10
0.4606
  20
0.2717
  42
0
  0
VERTEX
  8
Top_Mask
  10
0.4606
  20
0.2874
  42
0
  0
VERTEX
  8
Top_Mask
  10
0.4449
  20
0.2874
  42
0
  0
VERTEX
  8
Top_Mask
  10
0.4449
  20
0.2717
  42
0
  0
VERTEX
  8
Top_Mask
  10
0.4606
  20
0.2717
  42
0
  0
SEQEND
  0
POLYLINE
  8
Top_Mask
  6
CONTINUOUS
  66
1
  70
0
  40
0.0
  41
0.0
  0
VERTEX
  8
Top_Mask
  10
0.4606
  20
0.2323
  42
0
  0
VERTEX
  8
Top_Mask
  10
0.4606
  20
0.248
  42
0
  0
VERTEX
  8
Top_Mask
  10
0.4449
  20
0.248
  42
0
  0
VERTEX
  8
Top_Mask
  10
0.4449
  20
0.2323
  42
0
  0
VERTEX
  8
Top_Mask
  10
0.4606
  20
0.2323
  42
0
  0
SEQEND
  0
POLYLINE
  8
Top_Mask
  6
CONTINUOUS
  66
1
  70
0
  40
0.0
  41
0.0
  0
VERTEX
  8
Top_Mask
  10
0.4213
  20
0.2323
  42
0
  0
VERTEX
  8
Top_Mask
  10
0.4213
  20
0.248
  42
0
  0
VERTEX
  8
Top_Mask
  10
0.4055
  20
0.248
  42
0
  0
VERTEX
  8
Top_Mask
  10
0.4055
  20
0.2323
  42
0
  0
VERTEX
  8
Top_Mask
  10
0.4213
  20
0.2323
  42
0
  0
SEQEND
  0
POLYLINE
  8
Top_Mask
  6
CONTINUOUS
  66
1
  70
0
  40
0.0
  41
0.0
  0
VERTEX
  8
Top_Mask
  10
0.3819
  20
0.2323
  42
0
  0
VERTEX
  8
Top_Mask
  10
0.3819
  20
0.248
  42
0
  0
VERTEX
  8
Top_Mask
  10
0.3661
  20
0.248
  42
0
  0
VERTEX
  8
Top_Mask
  10
0.3661
  20
0.2323
  42
0
  0
VERTEX
  8
Top_Mask
  10
0.3819
  20
0.2323
  42
0
  0
SEQEND
  0
POLYLINE
  8
Top_Mask
  6
CONTINUOUS
  66
1
  70
0
  40
0.0
  41
0.0
  0
VERTEX
  8
Top_Mask
  10
0.3425
  20
0.2323
  42
0
  0
VERTEX
  8
Top_Mask
  10
0.3425
  20
0.248
  42
0
  0
VERTEX
  8
Top_Mask
  10
0.3268
  20
0.248
  42
0
  0
VERTEX
  8
Top_Mask
  10
0.3268
  20
0.2323
  42
0
  0
VERTEX
  8
Top_Mask
  10
0.3425
  20
0.2323
  42
0
  0
SEQEND
  0
POLYLINE
  8
Top_Mask
  6
CONTINUOUS
  66
1
  70
0
  40
0.0
  41
0.0
  0
VERTEX
  8
Top_Mask
  10
0.3425
  20
0.2717
  42
0
  0
VERTEX
  8
Top_Mask
  10
0.3425
  20
0.2874
  42
0
  0
VERTEX
  8
Top_Mask
  10
0.3268
  20
0.2874
  42
0
  0
VERTEX
  8
Top_Mask
  10
0.3268
  20
0.2717
  42
0
  0
VERTEX
  8
Top_Mask
  10
0.3425
  20
0.2717
  42
0
  0
SEQEND
  0
POLYLINE
  8
Top_Mask
  6
CONTINUOUS
  66
1
  70
0
  40
0.0
  41
0.0
  0
VERTEX
  8
Top_Mask
  10
0.3425
  20
0.311
  42
0
  0
VERTEX
  8
Top_Mask
  10
0.3425
  20
0.3268
  42
0
  0
VERTEX
  8
Top_Mask
  10
0.3268
  20
0.3268
  42
0
  0
VERTEX
  8
Top_Mask
  10
0.3268
  20
0.311
  42
0
  0
VERTEX
  8
Top_Mask
  10
0.3425
  20
0.311
  42
0
  0
SEQEND
  0
POLYLINE
  8
Top_Paste
  6
CONTINUOUS
  66
1
  70
0
  40
0.0
  41
0.0
  0
VERTEX
  8
Top_Paste
  10
0.6024
  20
0.5098
  42
0
  0
VERTEX
  8
Top_Paste
  10
0.5709
  20
0.5098
  42
0
  0
VERTEX
  8
Top_Paste
  10
0.5709
  20
0.4744
  42
0
  0
VERTEX
  8
Top_Paste
  10
0.6024
  20
0.4744
  42
0
  0
VERTEX
  8
Top_Paste
  10
0.6024
  20
0.5098
  42
0
  0
SEQEND
  0
POLYLINE
  8
Top_Paste
  6
CONTINUOUS
  66
1
  70
0
  40
0.0
  41
0.0
  0
VERTEX
  8
Top_Paste
  10
0.6772
  20
0.5098
  42
0
  0
VERTEX
  8
Top_Paste
  10
0.6457
  20
0.5098
  42
0
  0
VERTEX
  8
Top_Paste
  10
0.6457
  20
0.4744
  42
0
  0
VERTEX
  8
Top_Paste
  10
0.6772
  20
0.4744
  42
0
  0
VERTEX
  8
Top_Paste
  10
0.6772
  20
0.5098
  42
0
  0
SEQEND
  0
POLYLINE
  8
Top_Paste
  6
CONTINUOUS
  66
1
  70
0
  40
0.0
  41
0.0
  0
VERTEX
  8
Top_Paste
  10
0.6398
  20
0.5925
  42
0
  0
VERTEX
  8
Top_Paste
  10
0.6083
  20
0.5925
  42
0
  0
VERTEX
  8
Top_Paste
  10
0.6083
  20
0.5571
  42
0
  0
VERTEX
  8
Top_Paste
  10
0.6398
  20
0.5571
  42
0
  0
VERTEX
  8
Top_Paste
  10
0.6398
  20
0.5925
  42
0
  0
SEQEND
  0
POLYLINE
  8
Top_Paste
  6
CONTINUOUS
  66
1
  70
0
  40
0.0
  41
0.0
  0
VERTEX
  8
Top_Paste
  10
0.2224
  20
0.2205
  42
0
  0
VERTEX
  8
Top_Paste
  10
0.2657
  20
0.2205
  42
0
  0
VERTEX
  8
Top_Paste
  10
0.2657
  20
0.2598
  42
0
  0
VERTEX
  8
Top_Paste
  10
0.2224
  20
0.2598
  42
0
  0
VERTEX
  8
Top_Paste
  10
0.2224
  20
0.2205
  42
0
  0
SEQEND
  0
POLYLINE
  8
Top_Paste
  6
CONTINUOUS
  66
1
  70
0
  40
0.0
  41
0.0
  0
VERTEX
  8
Top_Paste
  10
0.1555
  20
0.2205
  42
0
  0
VERTEX
  8
Top_Paste
  10
0.1988
  20
0.2205
  42
0
  0
VERTEX
  8
Top_Paste
  10
0.1988
  20
0.2598
  42
0
  0
VERTEX
  8
Top_Paste
  10
0.1555
  20
0.2598
  42
0
  0
VERTEX
  8
Top_Paste
  10
0.1555
  20
0.2205
  42
0
  0
SEQEND
  0
POLYLINE
  8
Top_Paste
  6
CONTINUOUS
  66
1
  70
0
  40
0.0
  41
0.0
  0
VERTEX
  8
Top_Paste
  10
0.6083
  20
0.1457
  42
0
  0
VERTEX
  8
Top_Paste
  10
0.6516
  20
0.1457
  42
0
  0
VERTEX
  8
Top_Paste
  10
0.6516
  20
0.185
  42
0
  0
VERTEX
  8
Top_Paste
  10
0.6083
  20
0.185
  42
0
  0
VERTEX
  8
Top_Paste
  10
0.6083
  20
0.1457
  42
0
  0
SEQEND
  0
POLYLINE
  8
Top_Paste
  6
CONTINUOUS
  66
1
  70
0
  40
0.0
  41
0.0
  0
VERTEX
  8
Top_Paste
  10
0.5413
  20
0.1457
  42
0
  0
VERTEX
  8
Top_Paste
  10
0.5846
  20
0.1457
  42
0
  0
VERTEX
  8
Top_Paste
  10
0.5846
  20
0.185
  42
0
  0
VERTEX
  8
Top_Paste
  10
0.5413
  20
0.185
  42
0
  0
VERTEX
  8
Top_Paste
  10
0.5413
  20
0.1457
  42
0
  0
SEQEND
  0
POLYLINE
  8
Top_Paste
  6
CONTINUOUS
  66
1
  70
0
  40
0.0
  41
0.0
  0
VERTEX
  8
Top_Paste
  10
0.1772
  20
0.437
  42
0
  0
VERTEX
  8
Top_Paste
  10
0.2402
  20
0.437
  42
0
  0
VERTEX
  8
Top_Paste
  10
0.2402
  20
0.4921
  42
0
  0
VERTEX
  8
Top_Paste
  10
0.1772
  20
0.4921
  42
0
  0
VERTEX
  8
Top_Paste
  10
0.1772
  20
0.437
  42
0
  0
SEQEND
  0
POLYLINE
  8
Top_Paste
  6
CONTINUOUS
  66
1
  70
0
  40
0.0
  41
0.0
  0
VERTEX
  8
Top_Paste
  10
0.1772
  20
0.3268
  42
0
  0
VERTEX
  8
Top_Paste
  10
0.2402
  20
0.3268
  42
0
  0
VERTEX
  8
Top_Paste
  10
0.2402
  20
0.3819
  42
0
  0
VERTEX
  8
Top_Paste
  10
0.1772
  20
0.3819
  42
0
  0
VERTEX
  8
Top_Paste
  10
0.1772
  20
0.3268
  42
0
  0
SEQEND
  0
POLYLINE
  8
Top_Paste
  6
CONTINUOUS
  66
1
  70
0
  40
0.0
  41
0.0
  0
VERTEX
  8
Top_Paste
  10
0.2717
  20
0.5098
  42
0
  0
VERTEX
  8
Top_Paste
  10
0.2717
  20
0.4665
  42
0
  0
VERTEX
  8
Top_Paste
  10
0.311
  20
0.4665
  42
0
  0
VERTEX
  8
Top_Paste
  10
0.311
  20
0.5098
  42
0
  0
VERTEX
  8
Top_Paste
  10
0.2717
  20
0.5098
  42
0
  0
SEQEND
  0
POLYLINE
  8
Top_Paste
  6
CONTINUOUS
  66
1
  70
0
  40
0.0
  41
0.0
  0
VERTEX
  8
Top_Paste
  10
0.2717
  20
0.5768
  42
0
  0
VERTEX
  8
Top_Paste
  10
0.2717
  20
0.5335
  42
0
  0
VERTEX
  8
Top_Paste
  10
0.311
  20
0.5335
  42
0
  0
VERTEX
  8
Top_Paste
  10
0.311
  20
0.5768
  42
0
  0
VERTEX
  8
Top_Paste
  10
0.2717
  20
0.5768
  42
0
  0
SEQEND
  0
POLYLINE
  8
Top_Paste
  6
CONTINUOUS
  66
1
  70
0
  40
0.0
  41
0.0
  0
VERTEX
  8
Top_Paste
  10
0.3504
  20
0.5098
  42
0
  0
VERTEX
  8
Top_Paste
  10
0.3504
  20
0.4665
  42
0
  0
VERTEX
  8
Top_Paste
  10
0.3898
  20
0.4665
  42
0
  0
VERTEX
  8
Top_Paste
  10
0.3898
  20
0.5098
  42
0
  0
VERTEX
  8
Top_Paste
  10
0.3504
  20
0.5098
  42
0
  0
SEQEND
  0
POLYLINE
  8
Top_Paste
  6
CONTINUOUS
  66
1
  70
0
  40
0.0
  41
0.0
  0
VERTEX
  8
Top_Paste
  10
0.3504
  20
0.5768
  42
0
  0
VERTEX
  8
Top_Paste
  10
0.3504
  20
0.5335
  42
0
  0
VERTEX
  8
Top_Paste
  10
0.3898
  20
0.5335
  42
0
  0
VERTEX
  8
Top_Paste
  10
0.3898
  20
0.5768
  42
0
  0
VERTEX
  8
Top_Paste
  10
0.3504
  20
0.5768
  42
0
  0
SEQEND
  0
POLYLINE
  8
Top_Paste
  6
CONTINUOUS
  66
1
  70
0
  40
0.0
  41
0.0
  0
VERTEX
  8
Top_Paste
  10
0.4685
  20
0.5335
  42
0
  0
VERTEX
  8
Top_Paste
  10
0.4685
  20
0.5768
  42
0
  0
VERTEX
  8
Top_Paste
  10
0.4291
  20
0.5768
  42
0
  0
VERTEX
  8
Top_Paste
  10
0.4291
  20
0.5335
  42
0
  0
VERTEX
  8
Top_Paste
  10
0.4685
  20
0.5335
  42
0
  0
SEQEND
  0
POLYLINE
  8
Top_Paste
  6
CONTINUOUS
  66
1
  70
0
  40
0.0
  41
0.0
  0
VERTEX
  8
Top_Paste
  10
0.4685
  20
0.4665
  42
0
  0
VERTEX
  8
Top_Paste
  10
0.4685
  20
0.5098
  42
0
  0
VERTEX
  8
Top_Paste
  10
0.4291
  20
0.5098
  42
0
  0
VERTEX
  8
Top_Paste
  10
0.4291
  20
0.4665
  42
0
  0
VERTEX
  8
Top_Paste
  10
0.4685
  20
0.4665
  42
0
  0
SEQEND
  0
POLYLINE
  8
Top_Paste
  6
CONTINUOUS
  66
1
  70
0
  40
0.0
  41
0.0
  0
VERTEX
  8
Top_Paste
  10
0.5079
  20
0.5098
  42
0
  0
VERTEX
  8
Top_Paste
  10
0.5079
  20
0.4665
  42
0
  0
VERTEX
  8
Top_Paste
  10
0.5472
  20
0.4665
  42
0
  0
VERTEX
  8
Top_Paste
  10
0.5472
  20
0.5098
  42
0
  0
VERTEX
  8
Top_Paste
  10
0.5079
  20
0.5098
  42
0
  0
SEQEND
  0
POLYLINE
  8
Top_Paste
  6
CONTINUOUS
  66
1
  70
0
  40
0.0
  41
0.0
  0
VERTEX
  8
Top_Paste
  10
0.5079
  20
0.5768
  42
0
  0
VERTEX
  8
Top_Paste
  10
0.5079
  20
0.5335
  42
0
  0
VERTEX
  8
Top_Paste
  10
0.5472
  20
0.5335
  42
0
  0
VERTEX
  8
Top_Paste
  10
0.5472
  20
0.5768
  42
0
  0
VERTEX
  8
Top_Paste
  10
0.5079
  20
0.5768
  42
0
  0
SEQEND
  0
POLYLINE
  8
Top_Paste
  6
CONTINUOUS
  66
1
  70
0
  40
0.0
  41
0.0
  0
VERTEX
  8
Top_Paste
  10
0.5846
  20
0.1063
  42
0
  0
VERTEX
  8
Top_Paste
  10
0.5413
  20
0.1063
  42
0
  0
VERTEX
  8
Top_Paste
  10
0.5413
  20
0.0669
  42
0
  0
VERTEX
  8
Top_Paste
  10
0.5846
  20
0.0669
  42
0
  0
VERTEX
  8
Top_Paste
  10
0.5846
  20
0.1063
  42
0
  0
SEQEND
  0
POLYLINE
  8
Top_Paste
  6
CONTINUOUS
  66
1
  70
0
  40
0.0
  41
0.0
  0
VERTEX
  8
Top_Paste
  10
0.6516
  20
0.1063
  42
0
  0
VERTEX
  8
Top_Paste
  10
0.6083
  20
0.1063
  42
0
  0
VERTEX
  8
Top_Paste
  10
0.6083
  20
0.0669
  42
0
  0
VERTEX
  8
Top_Paste
  10
0.6516
  20
0.0669
  42
0
  0
VERTEX
  8
Top_Paste
  10
0.6516
  20
0.1063
  42
0
  0
SEQEND
  0
POLYLINE
  8
Top_Paste
  6
CONTINUOUS
  66
1
  70
0
  40
0.0
  41
0.0
  0
VERTEX
  8
Top_Paste
  10
0.562
  20
0.2913
  42
0
  0
VERTEX
  8
Top_Paste
  10
0.5404
  20
0.2913
  42
0
  0
VERTEX
  8
Top_Paste
  10
0.5404
  20
0.2441
  42
0
  0
VERTEX
  8
Top_Paste
  10
0.562
  20
0.2441
  42
0
  0
VERTEX
  8
Top_Paste
  10
0.562
  20
0.2913
  42
0
  0
SEQEND
  0
POLYLINE
  8
Top_Paste
  6
CONTINUOUS
  66
1
  70
0
  40
0.0
  41
0.0
  0
VERTEX
  8
Top_Paste
  10
0.5994
  20
0.2913
  42
0
  0
VERTEX
  8
Top_Paste
  10
0.5778
  20
0.2913
  42
0
  0
VERTEX
  8
Top_Paste
  10
0.5778
  20
0.2441
  42
0
  0
VERTEX
  8
Top_Paste
  10
0.5994
  20
0.2441
  42
0
  0
VERTEX
  8
Top_Paste
  10
0.5994
  20
0.2913
  42
0
  0
SEQEND
  0
POLYLINE
  8
Top_Paste
  6
CONTINUOUS
  66
1
  70
0
  40
0.0
  41
0.0
  0
VERTEX
  8
Top_Paste
  10
0.6368
  20
0.2913
  42
0
  0
VERTEX
  8
Top_Paste
  10
0.6152
  20
0.2913
  42
0
  0
VERTEX
  8
Top_Paste
  10
0.6152
  20
0.2441
  42
0
  0
VERTEX
  8
Top_Paste
  10
0.6368
  20
0.2441
  42
0
  0
VERTEX
  8
Top_Paste
  10
0.6368
  20
0.2913
  42
0
  0
SEQEND
  0
POLYLINE
  8
Top_Paste
  6
CONTINUOUS
  66
1
  70
0
  40
0.0
  41
0.0
  0
VERTEX
  8
Top_Paste
  10
0.6368
  20
0.3937
  42
0
  0
VERTEX
  8
Top_Paste
  10
0.6152
  20
0.3937
  42
0
  0
VERTEX
  8
Top_Paste
  10
0.6152
  20
0.3465
  42
0
  0
VERTEX
  8
Top_Paste
  10
0.6368
  20
0.3465
  42
0
  0
VERTEX
  8
Top_Paste
  10
0.6368
  20
0.3937
  42
0
  0
SEQEND
  0
POLYLINE
  8
Top_Paste
  6
CONTINUOUS
  66
1
  70
0
  40
0.0
  41
0.0
  0
VERTEX
  8
Top_Paste
  10
0.562
  20
0.3937
  42
0
  0
VERTEX
  8
Top_Paste
  10
0.5404
  20
0.3937
  42
0
  0
VERTEX
  8
Top_Paste
  10
0.5404
  20
0.3465
  42
0
  0
VERTEX
  8
Top_Paste
  10
0.562
  20
0.3465
  42
0
  0
VERTEX
  8
Top_Paste
  10
0.562
  20
0.3937
  42
0
  0
SEQEND
  0
POLYLINE
  8
Top_Paste
  6
CONTINUOUS
  66
1
  70
0
  40
0.0
  41
0.0
  0
VERTEX
  8
Top_Paste
  10
0.3425
  20
0.3504
  42
0
  0
VERTEX
  8
Top_Paste
  10
0.3425
  20
0.3661
  42
0
  0
VERTEX
  8
Top_Paste
  10
0.3268
  20
0.3661
  42
0
  0
VERTEX
  8
Top_Paste
  10
0.3268
  20
0.3504
  42
0
  0
VERTEX
  8
Top_Paste
  10
0.3425
  20
0.3504
  42
0
  0
SEQEND
  0
POLYLINE
  8
Top_Paste
  6
CONTINUOUS
  66
1
  70
0
  40
0.0
  41
0.0
  0
VERTEX
  8
Top_Paste
  10
0.3819
  20
0.3504
  42
0
  0
VERTEX
  8
Top_Paste
  10
0.3819
  20
0.3661
  42
0
  0
VERTEX
  8
Top_Paste
  10
0.3661
  20
0.3661
  42
0
  0
VERTEX
  8
Top_Paste
  10
0.3661
  20
0.3504
  42
0
  0
VERTEX
  8
Top_Paste
  10
0.3819
  20
0.3504
  42
0
  0
SEQEND
  0
POLYLINE
  8
Top_Paste
  6
CONTINUOUS
  66
1
  70
0
  40
0.0
  41
0.0
  0
VERTEX
  8
Top_Paste
  10
0.4213
  20
0.3504
  42
0
  0
VERTEX
  8
Top_Paste
  10
0.4213
  20
0.3661
  42
0
  0
VERTEX
  8
Top_Paste
  10
0.4055
  20
0.3661
  42
0
  0
VERTEX
  8
Top_Paste
  10
0.4055
  20
0.3504
  42
0
  0
VERTEX
  8
Top_Paste
  10
0.4213
  20
0.3504
  42
0
  0
SEQEND
  0
POLYLINE
  8
Top_Paste
  6
CONTINUOUS
  66
1
  70
0
  40
0.0
  41
0.0
  0
VERTEX
  8
Top_Paste
  10
0.4606
  20
0.3504
  42
0
  0
VERTEX
  8
Top_Paste
  10
0.4606
  20
0.3661
  42
0
  0
VERTEX
  8
Top_Paste
  10
0.4449
  20
0.3661
  42
0
  0
VERTEX
  8
Top_Paste
  10
0.4449
  20
0.3504
  42
0
  0
VERTEX
  8
Top_Paste
  10
0.4606
  20
0.3504
  42
0
  0
SEQEND
  0
POLYLINE
  8
Top_Paste
  6
CONTINUOUS
  66
1
  70
0
  40
0.0
  41
0.0
  0
VERTEX
  8
Top_Paste
  10
0.4606
  20
0.311
  42
0
  0
VERTEX
  8
Top_Paste
  10
0.4606
  20
0.3268
  42
0
  0
VERTEX
  8
Top_Paste
  10
0.4449
  20
0.3268
  42
0
  0
VERTEX
  8
Top_Paste
  10
0.4449
  20
0.311
  42
0
  0
VERTEX
  8
Top_Paste
  10
0.4606
  20
0.311
  42
0
  0
SEQEND
  0
POLYLINE
  8
Top_Paste
  6
CONTINUOUS
  66
1
  70
0
  40
0.0
  41
0.0
  0
VERTEX
  8
Top_Paste
  10
0.4606
  20
0.2717
  42
0
  0
VERTEX
  8
Top_Paste
  10
0.4606
  20
0.2874
  42
0
  0
VERTEX
  8
Top_Paste
  10
0.4449
  20
0.2874
  42
0
  0
VERTEX
  8
Top_Paste
  10
0.4449
  20
0.2717
  42
0
  0
VERTEX
  8
Top_Paste
  10
0.4606
  20
0.2717
  42
0
  0
SEQEND
  0
POLYLINE
  8
Top_Paste
  6
CONTINUOUS
  66
1
  70
0
  40
0.0
  41
0.0
  0
VERTEX
  8
Top_Paste
  10
0.4606
  20
0.2323
  42
0
  0
VERTEX
  8
Top_Paste
  10
0.4606
  20
0.248
  42
0
  0
VERTEX
  8
Top_Paste
  10
0.4449
  20
0.248
  42
0
  0
VERTEX
  8
Top_Paste
  10
0.4449
  20
0.2323
  42
0
  0
VERTEX
  8
Top_Paste
  10
0.4606
  20
0.2323
  42
0
  0
SEQEND
  0
POLYLINE
  8
Top_Paste
  6
CONTINUOUS
  66
1
  70
0
  40
0.0
  41
0.0
  0
VERTEX
  8
Top_Paste
  10
0.4213
  20
0.2323
  42
0
  0
VERTEX
  8
Top_Paste
  10
0.4213
  20
0.248
  42
0
  0
VERTEX
  8
Top_Paste
  10
0.4055
  20
0.248
  42
0
  0
VERTEX
  8
Top_Paste
  10
0.4055
  20
0.2323
  42
0
  0
VERTEX
  8
Top_Paste
  10
0.4213
  20
0.2323
  42
0
  0
SEQEND
  0
POLYLINE
  8
Top_Paste
  6
CONTINUOUS
  66
1
  70
0
  40
0.0
  41
0.0
  0
VERTEX
  8
Top_Paste
  10
0.3819
  20
0.2323
  42
0
  0
VERTEX
  8
Top_Paste
  10
0.3819
  20
0.248
  42
0
  0
VERTEX
  8
Top_Paste
  10
0.3661
  20
0.248
  42
0
  0
VERTEX
  8
Top_Paste
  10
0.3661
  20
0.2323
  42
0
  0
VERTEX
  8
Top_Paste
  10
0.3819
  20
0.2323
  42
0
  0
SEQEND
  0
POLYLINE
  8
Top_Paste
  6
CONTINUOUS
  66
1
  70
0
  40
0.0
  41
0.0
  0
VERTEX
  8
Top_Paste
  10
0.3425
  20
0.2323
  42
0
  0
VERTEX
  8
Top_Paste
  10
0.3425
  20
0.248
  42
0
  0
VERTEX
  8
Top_Paste
  10
0.3268
  20
0.248
  42
0
  0
VERTEX
  8
Top_Paste
  10
0.3268
  20
0.2323
  42
0
  0
VERTEX
  8
Top_Paste
  10
0.3425
  20
0.2323
  42
0
  0
SEQEND
  0
POLYLINE
  8
Top_Paste
  6
CONTINUOUS
  66
1
  70
0
  40
0.0
  41
0.0
  0
VERTEX
  8
Top_Paste
  10
0.3425
  20
0.2717
  42
0
  0
VERTEX
  8
Top_Paste
  10
0.3425
  20
0.2874
  42
0
  0
VERTEX
  8
Top_Paste
  10
0.3268
  20
0.2874
  42
0
  0
VERTEX
  8
Top_Paste
  10
0.3268
  20
0.2717
  42
0
  0
VERTEX
  8
Top_Paste
  10
0.3425
  20
0.2717
  42
0
  0
SEQEND
  0
POLYLINE
  8
Top_Paste
  6
CONTINUOUS
  66
1
  70
0
  40
0.0
  41
0.0
  0
VERTEX
  8
Top_Paste
  10
0.3425
  20
0.311
  42
0
  0
VERTEX
  8
Top_Paste
  10
0.3425
  20
0.3268
  42
0
  0
VERTEX
  8
Top_Paste
  10
0.3268
  20
0.3268
  42
0
  0
VERTEX
  8
Top_Paste
  10
0.3268
  20
0.311
  42
0
  0
VERTEX
  8
Top_Paste
  10
0.3425
  20
0.311
  42
0
  0
SEQEND
  0
POLYLINE
  8
Top
  6
CONTINUOUS
  66
1
  70
0
  40
0.0
  41
0.0
  0
VERTEX
  8
Top
  10
0.6024
  20
0.5098
  42
0
  0
VERTEX
  8
Top
  10
0.5709
  20
0.5098
  42
0
  0
VERTEX
  8
Top
  10
0.5709
  20
0.4744
  42
0
  0
VERTEX
  8
Top
  10
0.6024
  20
0.4744
  42
0
  0
VERTEX
  8
Top
  10
0.6024
  20
0.5098
  42
0
  0
SEQEND
  0
POLYLINE
  8
Top
  6
CONTINUOUS
  66
1
  70
0
  40
0.0
  41
0.0
  0
VERTEX
  8
Top
  10
0.6772
  20
0.5098
  42
0
  0
VERTEX
  8
Top
  10
0.6457
  20
0.5098
  42
0
  0
VERTEX
  8
Top
  10
0.6457
  20
0.4744
  42
0
  0
VERTEX
  8
Top
  10
0.6772
  20
0.4744
  42
0
  0
VERTEX
  8
Top
  10
0.6772
  20
0.5098
  42
0
  0
SEQEND
  0
POLYLINE
  8
Top
  6
CONTINUOUS
  66
1
  70
0
  40
0.0
  41
0.0
  0
VERTEX
  8
Top
  10
0.6398
  20
0.5925
  42
0
  0
VERTEX
  8
Top
  10
0.6083
  20
0.5925
  42
0
  0
VERTEX
  8
Top
  10
0.6083
  20
0.5571
  42
0
  0
VERTEX
  8
Top
  10
0.6398
  20
0.5571
  42
0
  0
VERTEX
  8
Top
  10
0.6398
  20
0.5925
  42
0
  0
SEQEND
  0
POLYLINE
  8
Top
  6
CONTINUOUS
  66
1
  70
0
  40
0.0
  41
0.0
  0
VERTEX
  8
Top
  10
0.2224
  20
0.2205
  42
0
  0
VERTEX
  8
Top
  10
0.2657
  20
0.2205
  42
0
  0
VERTEX
  8
Top
  10
0.2657
  20
0.2598
  42
0
  0
VERTEX
  8
Top
  10
0.2224
  20
0.2598
  42
0
  0
VERTEX
  8
Top
  10
0.2224
  20
0.2205
  42
0
  0
SEQEND
  0
POLYLINE
  8
Top
  6
CONTINUOUS
  66
1
  70
0
  40
0.0
  41
0.0
  0
VERTEX
  8
Top
  10
0.1555
  20
0.2205
  42
0
  0
VERTEX
  8
Top
  10
0.1988
  20
0.2205
  42
0
  0
VERTEX
  8
Top
  10
0.1988
  20
0.2598
  42
0
  0
VERTEX
  8
Top
  10
0.1555
  20
0.2598
  42
0
  0
VERTEX
  8
Top
  10
0.1555
  20
0.2205
  42
0
  0
SEQEND
  0
POLYLINE
  8
Top
  6
CONTINUOUS
  66
1
  70
0
  40
0.0
  41
0.0
  0
VERTEX
  8
Top
  10
0.6083
  20
0.1457
  42
0
  0
VERTEX
  8
Top
  10
0.6516
  20
0.1457
  42
0
  0
VERTEX
  8
Top
  10
0.6516
  20
0.185
  42
0
  0
VERTEX
  8
Top
  10
0.6083
  20
0.185
  42
0
  0
VERTEX
  8
Top
  10
0.6083
  20
0.1457
  42
0
  0
SEQEND
  0
POLYLINE
  8
Top
  6
CONTINUOUS
  66
1
  70
0
  40
0.0
  41
0.0
  0
VERTEX
  8
Top
  10
0.5413
  20
0.1457
  42
0
  0
VERTEX
  8
Top
  10
0.5846
  20
0.1457
  42
0
  0
VERTEX
  8
Top
  10
0.5846
  20
0.185
  42
0
  0
VERTEX
  8
Top
  10
0.5413
  20
0.185
  42
0
  0
VERTEX
  8
Top
  10
0.5413
  20
0.1457
  42
0
  0
SEQEND
  0
POLYLINE
  8
Top
  6
CONTINUOUS
  66
1
  70
0
  40
0.0
  41
0.0
  0
VERTEX
  8
Top
  10
0.1772
  20
0.437
  42
0
  0
VERTEX
  8
Top
  10
0.2402
  20
0.437
  42
0
  0
VERTEX
  8
Top
  10
0.2402
  20
0.4921
  42
0
  0
VERTEX
  8
Top
  10
0.1772
  20
0.4921
  42
0
  0
VERTEX
  8
Top
  10
0.1772
  20
0.437
  42
0
  0
SEQEND
  0
POLYLINE
  8
Top
  6
CONTINUOUS
  66
1
  70
0
  40
0.0
  41
0.0
  0
VERTEX
  8
Top
  10
0.1772
  20
0.3268
  42
0
  0
VERTEX
  8
Top
  10
0.2402
  20
0.3268
  42
0
  0
VERTEX
  8
Top
  10
0.2402
  20
0.3819
  42
0
  0
VERTEX
  8
Top
  10
0.1772
  20
0.3819
  42
0
  0
VERTEX
  8
Top
  10
0.1772
  20
0.3268
  42
0
  0
SEQEND
  0
POLYLINE
  8
Top
  6
CONTINUOUS
  66
1
  70
0
  40
0.0
  41
0.0
  0
VERTEX
  8
Top
  10
0.2717
  20
0.5098
  42
0
  0
VERTEX
  8
Top
  10
0.2717
  20
0.4665
  42
0
  0
VERTEX
  8
Top
  10
0.311
  20
0.4665
  42
0
  0
VERTEX
  8
Top
  10
0.311
  20
0.5098
  42
0
  0
VERTEX
  8
Top
  10
0.2717
  20
0.5098
  42
0
  0
SEQEND
  0
POLYLINE
  8
Top
  6
CONTINUOUS
  66
1
  70
0
  40
0.0
  41
0.0
  0
VERTEX
  8
Top
  10
0.2717
  20
0.5768
  42
0
  0
VERTEX
  8
Top
  10
0.2717
  20
0.5335
  42
0
  0
VERTEX
  8
Top
  10
0.311
  20
0.5335
  42
0
  0
VERTEX
  8
Top
  10
0.311
  20
0.5768
  42
0
  0
VERTEX
  8
Top
  10
0.2717
  20
0.5768
  42
0
  0
SEQEND
  0
POLYLINE
  8
Top
  6
CONTINUOUS
  66
1
  70
0
  40
0.0
  41
0.0
  0
VERTEX
  8
Top
  10
0.3504
  20
0.5098
  42
0
  0
VERTEX
  8
Top
  10
0.3504
  20
0.4665
  42
0
  0
VERTEX
  8
Top
  10
0.3898
  20
0.4665
  42
0
  0
VERTEX
  8
Top
  10
0.3898
  20
0.5098
  42
0
  0
VERTEX
  8
Top
  10
0.3504
  20
0.5098
  42
0
  0
SEQEND
  0
POLYLINE
  8
Top
  6
CONTINUOUS
  66
1
  70
0
  40
0.0
  41
0.0
  0
VERTEX
  8
Top
  10
0.3504
  20
0.5768
  42
0
  0
VERTEX
  8
Top
  10
0.3504
  20
0.5335
  42
0
  0
VERTEX
  8
Top
  10
0.3898
  20
0.5335
  42
0
  0
VERTEX
  8
Top
  10
0.3898
  20
0.5768
  42
0
  0
VERTEX
  8
Top
  10
0.3504
  20
0.5768
  42
0
  0
SEQEND
  0
SOLID
  8
Top
  10
0.0256
  20
0.5642
  11
0.0925
  21
0.5642
  12
0.0256
  22
0.4972
  13
0.0925
  23
0.4972
  0
POLYLINE
  8
Top
  6
CONTINUOUS
  66
1
  70
0
  40
0.0335
  41
0.0335
  0
VERTEX
  8
Top
  10
0.0758
  20
0.4307
  42
1
  0
VERTEX
  8
Top
  10
0.0423
  20
0.4307
  42
1
  0
VERTEX
  8
Top
  10
0.0758
  20
0.4307
  42
1
  0
SEQEND
  0
POLYLINE
  8
Top
  6
CONTINUOUS
  66
1
  70
0
  40
0.0335
  41
0.0335
  0
VERTEX
  8
Top
  10
0.0758
  20
0.3307
  42
1
  0
VERTEX
  8
Top
  10
0.0423
  20
0.3307
  42
1
  0
VERTEX
  8
Top
  10
0.0758
  20
0.3307
  42
1
  0
SEQEND
  0
POLYLINE
  8
Top
  6
CONTINUOUS
  66
1
  70
0
  40
0.0335
  41
0.0335
  0
VERTEX
  8
Top
  10
0.0758
  20
0.2307
  42
1
  0
VERTEX
  8
Top
  10
0.0423
  20
0.2307
  42
1
  0
VERTEX
  8
Top
  10
0.0758
  20
0.2307
  42
1
  0
SEQEND
  0
POLYLINE
  8
Top
  6
CONTINUOUS
  66
1
  70
0
  40
0.0335
  41
0.0335
  0
VERTEX
  8
Top
  10
0.0758
  20
0.1307
  42
1
  0
VERTEX
  8
Top
  10
0.0423
  20
0.1307
  42
1
  0
VERTEX
  8
Top
  10
0.0758
  20
0.1307
  42
1
  0
SEQEND
  0
POLYLINE
  8
Top
  6
CONTINUOUS
  66
1
  70
0
  40
0.0
  41
0.0
  0
VERTEX
  8
Top
  10
0.4685
  20
0.5335
  42
0
  0
VERTEX
  8
Top
  10
0.4685
  20
0.5768
  42
0
  0
VERTEX
  8
Top
  10
0.4291
  20
0.5768
  42
0
  0
VERTEX
  8
Top
  10
0.4291
  20
0.5335
  42
0
  0
VERTEX
  8
Top
  10
0.4685
  20
0.5335
  42
0
  0
SEQEND
  0
POLYLINE
  8
Top
  6
CONTINUOUS
  66
1
  70
0
  40
0.0
  41
0.0
  0
VERTEX
  8
Top
  10
0.4685
  20
0.4665
  42
0
  0
VERTEX
  8
Top
  10
0.4685
  20
0.5098
  42
0
  0
VERTEX
  8
Top
  10
0.4291
  20
0.5098
  42
0
  0
VERTEX
  8
Top
  10
0.4291
  20
0.4665
  42
0
  0
VERTEX
  8
Top
  10
0.4685
  20
0.4665
  42
0
  0
SEQEND
  0
POLYLINE
  8
Top
  6
CONTINUOUS
  66
1
  70
0
  40
0.0
  41
0.0
  0
VERTEX
  8
Top
  10
0.5079
  20
0.5098
  42
0
  0
VERTEX
  8
Top
  10
0.5079
  20
0.4665
  42
0
  0
VERTEX
  8
Top
  10
0.5472
  20
0.4665
  42
0
  0
VERTEX
  8
Top
  10
0.5472
  20
0.5098
  42
0
  0
VERTEX
  8
Top
  10
0.5079
  20
0.5098
  42
0
  0
SEQEND
  0
POLYLINE
  8
Top
  6
CONTINUOUS
  66
1
  70
0
  40
0.0
  41
0.0
  0
VERTEX
  8
Top
  10
0.5079
  20
0.5768
  42
0
  0
VERTEX
  8
Top
  10
0.5079
  20
0.5335
  42
0
  0
VERTEX
  8
Top
  10
0.5472
  20
0.5335
  42
0
  0
VERTEX
  8
Top
  10
0.5472
  20
0.5768
  42
0
  0
VERTEX
  8
Top
  10
0.5079
  20
0.5768
  42
0
  0
SEQEND
  0
POLYLINE
  8
Top
  6
CONTINUOUS
  66
1
  70
0
  40
0.0
  41
0.0
  0
VERTEX
  8
Top
  10
0.5846
  20
0.1063
  42
0
  0
VERTEX
  8
Top
  10
0.5413
  20
0.1063
  42
0
  0
VERTEX
  8
Top
  10
0.5413
  20
0.0669
  42
0
  0
VERTEX
  8
Top
  10
0.5846
  20
0.0669
  42
0
  0
VERTEX
  8
Top
  10
0.5846
  20
0.1063
  42
0
  0
SEQEND
  0
POLYLINE
  8
Top
  6
CONTINUOUS
  66
1
  70
0
  40
0.0
  41
0.0
  0
VERTEX
  8
Top
  10
0.6516
  20
0.1063
  42
0
  0
VERTEX
  8
Top
  10
0.6083
  20
0.1063
  42
0
  0
VERTEX
  8
Top
  10
0.6083
  20
0.0669
  42
0
  0
VERTEX
  8
Top
  10
0.6516
  20
0.0669
  42
0
  0
VERTEX
  8
Top
  10
0.6516
  20
0.1063
  42
0
  0
SEQEND
  0
POLYLINE
  8
Top
  6
CONTINUOUS
  66
1
  70
0
  40
0.0
  41
0.0
  0
VERTEX
  8
Top
  10
0.562
  20
0.2913
  42
0
  0
VERTEX
  8
Top
  10
0.5404
  20
0.2913
  42
0
  0
VERTEX
  8
Top
  10
0.5404
  20
0.2441
  42
0
  0
VERTEX
  8
Top
  10
0.562
  20
0.2441
  42
0
  0
VERTEX
  8
Top
  10
0.562
  20
0.2913
  42
0
  0
SEQEND
  0
POLYLINE
  8
Top
  6
CONTINUOUS
  66
1
  70
0
  40
0.0
  41
0.0
  0
VERTEX
  8
Top
  10
0.5994
  20
0.2913
  42
0
  0
VERTEX
  8
Top
  10
0.5778
  20
0.2913
  42
0
  0
VERTEX
  8
Top
  10
0.5778
  20
0.2441
  42
0
  0
VERTEX
  8
Top
  10
0.5994
  20
0.2441
  42
0
  0
VERTEX
  8
Top
  10
0.5994
  20
0.2913
  42
0
  0
SEQEND
  0
POLYLINE
  8
Top
  6
CONTINUOUS
  66
1
  70
0
  40
0.0
  41
0.0
  0
VERTEX
  8
Top
  10
0.6368
  20
0.2913
  42
0
  0
VERTEX
  8
Top
  10
0.6152
  20
0.2913
  42
0
  0
VERTEX
  8
Top
  10
0.6152
  20
0.2441
  42
0
  0
VERTEX
  8
Top
  10
0.6368
  20
0.2441
  42
0
  0
VERTEX
  8
Top
  10
0.6368
  20
0.2913
  42
0
  0
SEQEND
  0
POLYLINE
  8
Top
  6
CONTINUOUS
  66
1
  70
0
  40
0.0
  41
0.0
  0
VERTEX
  8
Top
  10
0.6368
  20
0.3937
  42
0
  0
VERTEX
  8
Top
  10
0.6152
  20
0.3937
  42
0
  0
VERTEX
  8
Top
  10
0.6152
  20
0.3465
  42
0
  0
VERTEX
  8
Top
  10
0.6368
  20
0.3465
  42
0
  0
VERTEX
  8
Top
  10
0.6368
  20
0.3937
  42
0
  0
SEQEND
  0
POLYLINE
  8
Top
  6
CONTINUOUS
  66
1
  70
0
  40
0.0
  41
0.0
  0
VERTEX
  8
Top
  10
0.562
  20
0.3937
  42
0
  0
VERTEX
  8
Top
  10
0.5404
  20
0.3937
  42
0
  0
VERTEX
  8
Top
  10
0.5404
  20
0.3465
  42
0
  0
VERTEX
  8
Top
  10
0.562
  20
0.3465
  42
0
  0
VERTEX
  8
Top
  10
0.562
  20
0.3937
  42
0
  0
SEQEND
  0
POLYLINE
  8
Top
  6
CONTINUOUS
  66
1
  70
0
  40
0.0
  41
0.0
  0
VERTEX
  8
Top
  10
0.3425
  20
0.3504
  42
0
  0
VERTEX
  8
Top
  10
0.3425
  20
0.3661
  42
0
  0
VERTEX
  8
Top
  10
0.3268
  20
0.3661
  42
0
  0
VERTEX
  8
Top
  10
0.3268
  20
0.3504
  42
0
  0
VERTEX
  8
Top
  10
0.3425
  20
0.3504
  42
0
  0
SEQEND
  0
POLYLINE
  8
Top
  6
CONTINUOUS
  66
1
  70
0
  40
0.0
  41
0.0
  0
VERTEX
  8
Top
  10
0.3819
  20
0.3504
  42
0
  0
VERTEX
  8
Top
  10
0.3819
  20
0.3661
  42
0
  0
VERTEX
  8
Top
  10
0.3661
  20
0.3661
  42
0
  0
VERTEX
  8
Top
  10
0.3661
  20
0.3504
  42
0
  0
VERTEX
  8
Top
  10
0.3819
  20
0.3504
  42
0
  0
SEQEND
  0
POLYLINE
  8
Top
  6
CONTINUOUS
  66
1
  70
0
  40
0.0
  41
0.0
  0
VERTEX
  8
Top
  10
0.4213
  20
0.3504
  42
0
  0
VERTEX
  8
Top
  10
0.4213
  20
0.3661
  42
0
  0
VERTEX
  8
Top
  10
0.4055
  20
0.3661
  42
0
  0
VERTEX
  8
Top
  10
0.4055
  20
0.3504
  42
0
  0
VERTEX
  8
Top
  10
0.4213
  20
0.3504
  42
0
  0
SEQEND
  0
POLYLINE
  8
Top
  6
CONTINUOUS
  66
1
  70
0
  40
0.0
  41
0.0
  0
VERTEX
  8
Top
  10
0.4606
  20
0.3504
  42
0
  0
VERTEX
  8
Top
  10
0.4606
  20
0.3661
  42
0
  0
VERTEX
  8
Top
  10
0.4449
  20
0.3661
  42
0
  0
VERTEX
  8
Top
  10
0.4449
  20
0.3504
  42
0
  0
VERTEX
  8
Top
  10
0.4606
  20
0.3504
  42
0
  0
SEQEND
  0
POLYLINE
  8
Top
  6
CONTINUOUS
  66
1
  70
0
  40
0.0
  41
0.0
  0
VERTEX
  8
Top
  10
0.4606
  20
0.311
  42
0
  0
VERTEX
  8
Top
  10
0.4606
  20
0.3268
  42
0
  0
VERTEX
  8
Top
  10
0.4449
  20
0.3268
  42
0
  0
VERTEX
  8
Top
  10
0.4449
  20
0.311
  42
0
  0
VERTEX
  8
Top
  10
0.4606
  20
0.311
  42
0
  0
SEQEND
  0
POLYLINE
  8
Top
  6
CONTINUOUS
  66
1
  70
0
  40
0.0
  41
0.0
  0
VERTEX
  8
Top
  10
0.4606
  20
0.2717
  42
0
  0
VERTEX
  8
Top
  10
0.4606
  20
0.2874
  42
0
  0
VERTEX
  8
Top
  10
0.4449
  20
0.2874
  42
0
  0
VERTEX
  8
Top
  10
0.4449
  20
0.2717
  42
0
  0
VERTEX
  8
Top
  10
0.4606
  20
0.2717
  42
0
  0
SEQEND
  0
POLYLINE
  8
Top
  6
CONTINUOUS
  66
1
  70
0
  40
0.0
  41
0.0
  0
VERTEX
  8
Top
  10
0.4606
  20
0.2323
  42
0
  0
VERTEX
  8
Top
  10
0.4606
  20
0.248
  42
0
  0
VERTEX
  8
Top
  10
0.4449
  20
0.248
  42
0
  0
VERTEX
  8
Top
  10
0.4449
  20
0.2323
  42
0
  0
VERTEX
  8
Top
  10
0.4606
  20
0.2323
  42
0
  0
SEQEND
  0
POLYLINE
  8
Top
  6
CONTINUOUS
  66
1
  70
0
  40
0.0
  41
0.0
  0
VERTEX
  8
Top
  10
0.4213
  20
0.2323
  42
0
  0
VERTEX
  8
Top
  10
0.4213
  20
0.248
  42
0
  0
VERTEX
  8
Top
  10
0.4055
  20
0.248
  42
0
  0
VERTEX
  8
Top
  10
0.4055
  20
0.2323
  42
0
  0
VERTEX
  8
Top
  10
0.4213
  20
0.2323
  42
0
  0
SEQEND
  0
POLYLINE
  8
Top
  6
CONTINUOUS
  66
1
  70
0
  40
0.0
  41
0.0
  0
VERTEX
  8
Top
  10
0.3819
  20
0.2323
  42
0
  0
VERTEX
  8
Top
  10
0.3819
  20
0.248
  42
0
  0
VERTEX
  8
Top
  10
0.3661
  20
0.248
  42
0
  0
VERTEX
  8
Top
  10
0.3661
  20
0.2323
  42
0
  0
VERTEX
  8
Top
  10
0.3819
  20
0.2323
  42
0
  0
SEQEND
  0
POLYLINE
  8
Top
  6
CONTINUOUS
  66
1
  70
0
  40
0.0
  41
0.0
  0
VERTEX
  8
Top
  10
0.3425
  20
0.2323
  42
0
  0
VERTEX
  8
Top
  10
0.3425
  20
0.248
  42
0
  0
VERTEX
  8
Top
  10
0.3268
  20
0.248
  42
0
  0
VERTEX
  8
Top
  10
0.3268
  20
0.2323
  42
0
  0
VERTEX
  8
Top
  10
0.3425
  20
0.2323
  42
0
  0
SEQEND
  0
POLYLINE
  8
Top
  6
CONTINUOUS
  66
1
  70
0
  40
0.0
  41
0.0
  0
VERTEX
  8
Top
  10
0.3425
  20
0.2717
  42
0
  0
VERTEX
  8
Top
  10
0.3425
  20
0.2874
  42
0
  0
VERTEX
  8
Top
  10
0.3268
  20
0.2874
  42
0
  0
VERTEX
  8
Top
  10
0.3268
  20
0.2717
  42
0
  0
VERTEX
  8
Top
  10
0.3425
  20
0.2717
  42
0
  0
SEQEND
  0
POLYLINE
  8
Top
  6
CONTINUOUS
  66
1
  70
0
  40
0.0
  41
0.0
  0
VERTEX
  8
Top
  10
0.3425
  20
0.311
  42
0
  0
VERTEX
  8
Top
  10
0.3425
  20
0.3268
  42
0
  0
VERTEX
  8
Top
  10
0.3268
  20
0.3268
  42
0
  0
VERTEX
  8
Top
  10
0.3268
  20
0.311
  42
0
  0
VERTEX
  8
Top
  10
0.3425
  20
0.311
  42
0
  0
SEQEND
  0
POLYLINE
  8
Top
  6
CONTINUOUS
  66
1
  70
0
  40
0.0098
  41
0.0098
  0
VERTEX
  8
Top
  10
0.2096
  20
0.5551
  42
1
  0
VERTEX
  8
Top
  10
0.1998
  20
0.5551
  42
1
  0
VERTEX
  8
Top
  10
0.2096
  20
0.5551
  42
1
  0
SEQEND
  0
POLYLINE
  8
Top
  6
CONTINUOUS
  66
1
  70
0
  40
0.0098
  41
0.0098
  0
VERTEX
  8
Top
  10
0.6663
  20
0.4567
  42
1
  0
VERTEX
  8
Top
  10
0.6565
  20
0.4567
  42
1
  0
VERTEX
  8
Top
  10
0.6663
  20
0.4567
  42
1
  0
SEQEND
  0
POLYLINE
  8
Top
  6
CONTINUOUS
  66
1
  70
0
  40
0.0098
  41
0.0098
  0
VERTEX
  8
Top
  10
0.5128
  20
0.3622
  42
1
  0
VERTEX
  8
Top
  10
0.503
  20
0.3622
  42
1
  0
VERTEX
  8
Top
  10
0.5128
  20
0.3622
  42
1
  0
SEQEND
  0
POLYLINE
  8
Top
  6
CONTINUOUS
  66
1
  70
0
  40
0.0098
  41
0.0098
  0
VERTEX
  8
Top
  10
0.4931
  20
0.2402
  42
1
  0
VERTEX
  8
Top
  10
0.4833
  20
0.2402
  42
1
  0
VERTEX
  8
Top
  10
0.4931
  20
0.2402
  42
1
  0
SEQEND
  0
POLYLINE
  8
Top
  6
CONTINUOUS
  66
1
  70
0
  40
0.0098
  41
0.0098
  0
VERTEX
  8
Top
  10
0.497
  20
0.4291
  42
1
  0
VERTEX
  8
Top
  10
0.4872
  20
0.4291
  42
1
  0
VERTEX
  8
Top
  10
0.497
  20
0.4291
  42
1
  0
SEQEND
  0
POLYLINE
  8
Top
  6
CONTINUOUS
  66
1
  70
0
  40
0.0098
  41
0.0098
  0
VERTEX
  8
Top
  10
0.4734
  20
0.0866
  42
1
  0
VERTEX
  8
Top
  10
0.4636
  20
0.0866
  42
1
  0
VERTEX
  8
Top
  10
0.4734
  20
0.0866
  42
1
  0
SEQEND
  0
POLYLINE
  8
Top
  6
CONTINUOUS
  66
1
  70
0
  40
0.0098
  41
0.0098
  0
VERTEX
  8
Top
  10
0.2411
  20
0.1654
  42
1
  0
VERTEX
  8
Top
  10
0.2313
  20
0.1654
  42
1
  0
VERTEX
  8
Top
  10
0.2411
  20
0.1654
  42
1
  0
SEQEND
  0
POLYLINE
  8
Top
  6
CONTINUOUS
  66
1
  70
0
  40
0.0079
  41
0.0079
  0
VERTEX
  8
Top
  10
0.6614
  20
0.4921
  42
0
  0
VERTEX
  8
Top
  10
0.6693
  20
0.4921
  42
0
  0
SEQEND
  0
POLYLINE
  8
Top
  6
CONTINUOUS
  66
1
  70
0
  40
0.0039
  41
0.0039
  0
VERTEX
  8
Top
  10
0.6594
  20
0.4921
  42
1
  0
VERTEX
  8
Top
  10
0.6634
  20
0.4921
  42
1
  0
VERTEX
  8
Top
  10
0.6594
  20
0.4921
  42
1
  0
SEQEND
  0
POLYLINE
  8
Top
  6
CONTINUOUS
  66
1
  70
0
  40
0.0039
  41
0.0039
  0
VERTEX
  8
Top
  10
0.6673
  20
0.4921
  42
1
  0
VERTEX
  8
Top
  10
0.6713
  20
0.4921
  42
1
  0
VERTEX
  8
Top
  10
0.6673
  20
0.4921
  42
1
  0
SEQEND
  0
POLYLINE
  8
Top
  6
CONTINUOUS
  66
1
  70
0
  40
0.0079
  41
0.0079
  0
VERTEX
  8
Top
  10
0.6693
  20
0.4921
  42
0
  0
VERTEX
  8
Top
  10
0.7008
  20
0.5236
  42
0
  0
SEQEND
  0
POLYLINE
  8
Top
  6
CONTINUOUS
  66
1
  70
0
  40
0.0039
  41
0.0039
  0
VERTEX
  8
Top
  10
0.6673
  20
0.4921
  42
1
  0
VERTEX
  8
Top
  10
0.6713
  20
0.4921
  42
1
  0
VERTEX
  8
Top
  10
0.6673
  20
0.4921
  42
1
  0
SEQEND
  0
POLYLINE
  8
Top
  6
CONTINUOUS
  66
1
  70
0
  40
0.0039
  41
0.0039
  0
VERTEX
  8
Top
  10
0.6988
  20
0.5236
  42
1
  0
VERTEX
  8
Top
  10
0.7028
  20
0.5236
  42
1
  0
VERTEX
  8
Top
  10
0.6988
  20
0.5236
  42
1
  0
SEQEND
  0
POLYLINE
  8
Top
  6
CONTINUOUS
  66
1
  70
0
  40
0.0079
  41
0.0079
  0
VERTEX
  8
Top
  10
0.7008
  20
0.5236
  42
0
  0
VERTEX
  8
Top
  10
0.7008
  20
0.5906
  42
0
  0
SEQEND
  0
POLYLINE
  8
Top
  6
CONTINUOUS
  66
1
  70
0
  40
0.0039
  41
0.0039
  0
VERTEX
  8
Top
  10
0.6988
  20
0.5236
  42
1
  0
VERTEX
  8
Top
  10
0.7028
  20
0.5236
  42
1
  0
VERTEX
  8
Top
  10
0.6988
  20
0.5236
  42
1
  0
SEQEND
  0
POLYLINE
  8
Top
  6
CONTINUOUS
  66
1
  70
0
  40
0.0039
  41
0.0039
  0
VERTEX
  8
Top
  10
0.6988
  20
0.5906
  42
1
  0
VERTEX
  8
Top
  10
0.7028
  20
0.5906
  42
1
  0
VERTEX
  8
Top
  10
0.6988
  20
0.5906
  42
1
  0
SEQEND
  0
POLYLINE
  8
Top
  6
CONTINUOUS
  66
1
  70
0
  40
0.0079
  41
0.0079
  0
VERTEX
  8
Top
  10
0.7008
  20
0.5906
  42
0
  0
VERTEX
  8
Top
  10
0.6614
  20
0.6299
  42
0
  0
SEQEND
  0
POLYLINE
  8
Top
  6
CONTINUOUS
  66
1
  70
0
  40
0.0039
  41
0.0039
  0
VERTEX
  8
Top
  10
0.6988
  20
0.5906
  42
1
  0
VERTEX
  8
Top
  10
0.7028
  20
0.5906
  42
1
  0
VERTEX
  8
Top
  10
0.6988
  20
0.5906
  42
1
  0
SEQEND
  0
POLYLINE
  8
Top
  6
CONTINUOUS
  66
1
  70
0
  40
0.0039
  41
0.0039
  0
VERTEX
  8
Top
  10
0.6594
  20
0.6299
  42
1
  0
VERTEX
  8
Top
  10
0.6634
  20
0.6299
  42
1
  0
VERTEX
  8
Top
  10
0.6594
  20
0.6299
  42
1
  0
SEQEND
  0
POLYLINE
  8
Top
  6
CONTINUOUS
  66
1
  70
0
  40
0.0079
  41
0.0079
  0
VERTEX
  8
Top
  10
0.6614
  20
0.6299
  42
0
  0
VERTEX
  8
Top
  10
0.5276
  20
0.6299
  42
0
  0
SEQEND
  0
POLYLINE
  8
Top
  6
CONTINUOUS
  66
1
  70
0
  40
0.0039
  41
0.0039
  0
VERTEX
  8
Top
  10
0.6594
  20
0.6299
  42
1
  0
VERTEX
  8
Top
  10
0.6634
  20
0.6299
  42
1
  0
VERTEX
  8
Top
  10
0.6594
  20
0.6299
  42
1
  0
SEQEND
  0
POLYLINE
  8
Top
  6
CONTINUOUS
  66
1
  70
0
  40
0.0039
  41
0.0039
  0
VERTEX
  8
Top
  10
0.5256
  20
0.6299
  42
1
  0
VERTEX
  8
Top
  10
0.5295
  20
0.6299
  42
1
  0
VERTEX
  8
Top
  10
0.5256
  20
0.6299
  42
1
  0
SEQEND
  0
POLYLINE
  8
Top
  6
CONTINUOUS
  66
1
  70
0
  40
0.0079
  41
0.0079
  0
VERTEX
  8
Top
  10
0.5276
  20
0.6299
  42
0
  0
VERTEX
  8
Top
  10
0.4764
  20
0.6299
  42
0
  0
SEQEND
  0
POLYLINE
  8
Top
  6
CONTINUOUS
  66
1
  70
0
  40
0.0039
  41
0.0039
  0
VERTEX
  8
Top
  10
0.5256
  20
0.6299
  42
1
  0
VERTEX
  8
Top
  10
0.5295
  20
0.6299
  42
1
  0
VERTEX
  8
Top
  10
0.5256
  20
0.6299
  42
1
  0
SEQEND
  0
POLYLINE
  8
Top
  6
CONTINUOUS
  66
1
  70
0
  40
0.0039
  41
0.0039
  0
VERTEX
  8
Top
  10
0.4744
  20
0.6299
  42
1
  0
VERTEX
  8
Top
  10
0.4783
  20
0.6299
  42
1
  0
VERTEX
  8
Top
  10
0.4744
  20
0.6299
  42
1
  0
SEQEND
  0
POLYLINE
  8
Top
  6
CONTINUOUS
  66
1
  70
0
  40
0.0079
  41
0.0079
  0
VERTEX
  8
Top
  10
0.4764
  20
0.6299
  42
0
  0
VERTEX
  8
Top
  10
0.4528
  20
0.6063
  42
0
  0
SEQEND
  0
POLYLINE
  8
Top
  6
CONTINUOUS
  66
1
  70
0
  40
0.0039
  41
0.0039
  0
VERTEX
  8
Top
  10
0.4744
  20
0.6299
  42
1
  0
VERTEX
  8
Top
  10
0.4783
  20
0.6299
  42
1
  0
VERTEX
  8
Top
  10
0.4744
  20
0.6299
  42
1
  0
SEQEND
  0
POLYLINE
  8
Top
  6
CONTINUOUS
  66
1
  70
0
  40
0.0039
  41
0.0039
  0
VERTEX
  8
Top
  10
0.4508
  20
0.6063
  42
1
  0
VERTEX
  8
Top
  10
0.4547
  20
0.6063
  42
1
  0
VERTEX
  8
Top
  10
0.4508
  20
0.6063
  42
1
  0
SEQEND
  0
POLYLINE
  8
Top
  6
CONTINUOUS
  66
1
  70
0
  40
0.0079
  41
0.0079
  0
VERTEX
  8
Top
  10
0.4528
  20
0.6063
  42
0
  0
VERTEX
  8
Top
  10
0.4528
  20
0.5591
  42
0
  0
SEQEND
  0
POLYLINE
  8
Top
  6
CONTINUOUS
  66
1
  70
0
  40
0.0039
  41
0.0039
  0
VERTEX
  8
Top
  10
0.4508
  20
0.6063
  42
1
  0
VERTEX
  8
Top
  10
0.4547
  20
0.6063
  42
1
  0
VERTEX
  8
Top
  10
0.4508
  20
0.6063
  42
1
  0
SEQEND
  0
POLYLINE
  8
Top
  6
CONTINUOUS
  66
1
  70
0
  40
0.0039
  41
0.0039
  0
VERTEX
  8
Top
  10
0.4508
  20
0.5591
  42
1
  0
VERTEX
  8
Top
  10
0.4547
  20
0.5591
  42
1
  0
VERTEX
  8
Top
  10
0.4508
  20
0.5591
  42
1
  0
SEQEND
  0
POLYLINE
  8
Top
  6
CONTINUOUS
  66
1
  70
0
  40
0.0079
  41
0.0079
  0
VERTEX
  8
Top
  10
0.4528
  20
0.5591
  42
0
  0
VERTEX
  8
Top
  10
0.4488
  20
0.5551
  42
0
  0
SEQEND
  0
POLYLINE
  8
Top
  6
CONTINUOUS
  66
1
  70
0
  40
0.0039
  41
0.0039
  0
VERTEX
  8
Top
  10
0.4508
  20
0.5591
  42
1
  0
VERTEX
  8
Top
  10
0.4547
  20
0.5591
  42
1
  0
VERTEX
  8
Top
  10
0.4508
  20
0.5591
  42
1
  0
SEQEND
  0
POLYLINE
  8
Top
  6
CONTINUOUS
  66
1
  70
0
  40
0.0039
  41
0.0039
  0
VERTEX
  8
Top
  10
0.4469
  20
0.5551
  42
1
  0
VERTEX
  8
Top
  10
0.4508
  20
0.5551
  42
1
  0
VERTEX
  8
Top
  10
0.4469
  20
0.5551
  42
1
  0
SEQEND
  0
POLYLINE
  8
Top
  6
CONTINUOUS
  66
1
  70
0
  40
0.0079
  41
0.0079
  0
VERTEX
  8
Top
  10
0.5276
  20
0.5551
  42
0
  0
VERTEX
  8
Top
  10
0.5276
  20
0.6299
  42
0
  0
SEQEND
  0
POLYLINE
  8
Top
  6
CONTINUOUS
  66
1
  70
0
  40
0.0039
  41
0.0039
  0
VERTEX
  8
Top
  10
0.5256
  20
0.5551
  42
1
  0
VERTEX
  8
Top
  10
0.5295
  20
0.5551
  42
1
  0
VERTEX
  8
Top
  10
0.5256
  20
0.5551
  42
1
  0
SEQEND
  0
POLYLINE
  8
Top
  6
CONTINUOUS
  66
1
  70
0
  40
0.0039
  41
0.0039
  0
VERTEX
  8
Top
  10
0.5256
  20
0.6299
  42
1
  0
VERTEX
  8
Top
  10
0.5295
  20
0.6299
  42
1
  0
VERTEX
  8
Top
  10
0.5256
  20
0.6299
  42
1
  0
SEQEND
  0
POLYLINE
  8
Top
  6
CONTINUOUS
  66
1
  70
0
  40
0.0079
  41
0.0079
  0
VERTEX
  8
Top
  10
0.5079
  20
0.3622
  42
0
  0
VERTEX
  8
Top
  10
0.4567
  20
0.3622
  42
0
  0
SEQEND
  0
POLYLINE
  8
Top
  6
CONTINUOUS
  66
1
  70
0
  40
0.0039
  41
0.0039
  0
VERTEX
  8
Top
  10
0.5059
  20
0.3622
  42
1
  0
VERTEX
  8
Top
  10
0.5098
  20
0.3622
  42
1
  0
VERTEX
  8
Top
  10
0.5059
  20
0.3622
  42
1
  0
SEQEND
  0
POLYLINE
  8
Top
  6
CONTINUOUS
  66
1
  70
0
  40
0.0039
  41
0.0039
  0
VERTEX
  8
Top
  10
0.4547
  20
0.3622
  42
1
  0
VERTEX
  8
Top
  10
0.4587
  20
0.3622
  42
1
  0
VERTEX
  8
Top
  10
0.4547
  20
0.3622
  42
1
  0
SEQEND
  0
POLYLINE
  8
Top
  6
CONTINUOUS
  66
1
  70
0
  40
0.0079
  41
0.0079
  0
VERTEX
  8
Top
  10
0.4567
  20
0.3622
  42
0
  0
VERTEX
  8
Top
  10
0.4528
  20
0.3583
  42
0
  0
SEQEND
  0
POLYLINE
  8
Top
  6
CONTINUOUS
  66
1
  70
0
  40
0.0039
  41
0.0039
  0
VERTEX
  8
Top
  10
0.4547
  20
0.3622
  42
1
  0
VERTEX
  8
Top
  10
0.4587
  20
0.3622
  42
1
  0
VERTEX
  8
Top
  10
0.4547
  20
0.3622
  42
1
  0
SEQEND
  0
POLYLINE
  8
Top
  6
CONTINUOUS
  66
1
  70
0
  40
0.0039
  41
0.0039
  0
VERTEX
  8
Top
  10
0.4508
  20
0.3583
  42
1
  0
VERTEX
  8
Top
  10
0.4547
  20
0.3583
  42
1
  0
VERTEX
  8
Top
  10
0.4508
  20
0.3583
  42
1
  0
SEQEND
  0
POLYLINE
  8
Top
  6
CONTINUOUS
  66
1
  70
0
  40
0.0079
  41
0.0079
  0
VERTEX
  8
Top
  10
0.6614
  20
0.4567
  42
0
  0
VERTEX
  8
Top
  10
0.6614
  20
0.4921
  42
0
  0
SEQEND
  0
POLYLINE
  8
Top
  6
CONTINUOUS
  66
1
  70
0
  40
0.0039
  41
0.0039
  0
VERTEX
  8
Top
  10
0.6594
  20
0.4567
  42
1
  0
VERTEX
  8
Top
  10
0.6634
  20
0.4567
  42
1
  0
VERTEX
  8
Top
  10
0.6594
  20
0.4567
  42
1
  0
SEQEND
  0
POLYLINE
  8
Top
  6
CONTINUOUS
  66
1
  70
0
  40
0.0039
  41
0.0039
  0
VERTEX
  8
Top
  10
0.6594
  20
0.4921
  42
1
  0
VERTEX
  8
Top
  10
0.6634
  20
0.4921
  42
1
  0
VERTEX
  8
Top
  10
0.6594
  20
0.4921
  42
1
  0
SEQEND
  0
POLYLINE
  8
Top
  6
CONTINUOUS
  66
1
  70
0
  40
0.0079
  41
0.0079
  0
VERTEX
  8
Top
  10
0.6614
  20
0.4921
  42
0
  0
VERTEX
  8
Top
  10
0.6614
  20
0.4921
  42
0
  0
SEQEND
  0
POLYLINE
  8
Top
  6
CONTINUOUS
  66
1
  70
0
  40
0.0039
  41
0.0039
  0
VERTEX
  8
Top
  10
0.6594
  20
0.4921
  42
1
  0
VERTEX
  8
Top
  10
0.6634
  20
0.4921
  42
1
  0
VERTEX
  8
Top
  10
0.6594
  20
0.4921
  42
1
  0
SEQEND
  0
POLYLINE
  8
Top
  6
CONTINUOUS
  66
1
  70
0
  40
0.0079
  41
0.0079
  0
VERTEX
  8
Top
  10
0.624
  20
0.5748
  42
0
  0
VERTEX
  8
Top
  10
0.624
  20
0.4587
  42
0
  0
SEQEND
  0
POLYLINE
  8
Top
  6
CONTINUOUS
  66
1
  70
0
  40
0.0039
  41
0.0039
  0
VERTEX
  8
Top
  10
0.622
  20
0.5748
  42
1
  0
VERTEX
  8
Top
  10
0.626
  20
0.5748
  42
1
  0
VERTEX
  8
Top
  10
0.622
  20
0.5748
  42
1
  0
SEQEND
  0
POLYLINE
  8
Top
  6
CONTINUOUS
  66
1
  70
0
  40
0.0039
  41
0.0039
  0
VERTEX
  8
Top
  10
0.622
  20
0.4587
  42
1
  0
VERTEX
  8
Top
  10
0.626
  20
0.4587
  42
1
  0
VERTEX
  8
Top
  10
0.622
  20
0.4587
  42
1
  0
SEQEND
  0
POLYLINE
  8
Top
  6
CONTINUOUS
  66
1
  70
0
  40
0.0079
  41
0.0079
  0
VERTEX
  8
Top
  10
0.624
  20
0.4587
  42
0
  0
VERTEX
  8
Top
  10
0.6929
  20
0.3898
  42
0
  0
SEQEND
  0
POLYLINE
  8
Top
  6
CONTINUOUS
  66
1
  70
0
  40
0.0039
  41
0.0039
  0
VERTEX
  8
Top
  10
0.622
  20
0.4587
  42
1
  0
VERTEX
  8
Top
  10
0.626
  20
0.4587
  42
1
  0
VERTEX
  8
Top
  10
0.622
  20
0.4587
  42
1
  0
SEQEND
  0
POLYLINE
  8
Top
  6
CONTINUOUS
  66
1
  70
0
  40
0.0039
  41
0.0039
  0
VERTEX
  8
Top
  10
0.6909
  20
0.3898
  42
1
  0
VERTEX
  8
Top
  10
0.6949
  20
0.3898
  42
1
  0
VERTEX
  8
Top
  10
0.6909
  20
0.3898
  42
1
  0
SEQEND
  0
POLYLINE
  8
Top
  6
CONTINUOUS
  66
1
  70
0
  40
0.0079
  41
0.0079
  0
VERTEX
  8
Top
  10
0.6929
  20
0.3898
  42
0
  0
VERTEX
  8
Top
  10
0.6929
  20
0.1496
  42
0
  0
SEQEND
  0
POLYLINE
  8
Top
  6
CONTINUOUS
  66
1
  70
0
  40
0.0039
  41
0.0039
  0
VERTEX
  8
Top
  10
0.6909
  20
0.3898
  42
1
  0
VERTEX
  8
Top
  10
0.6949
  20
0.3898
  42
1
  0
VERTEX
  8
Top
  10
0.6909
  20
0.3898
  42
1
  0
SEQEND
  0
POLYLINE
  8
Top
  6
CONTINUOUS
  66
1
  70
0
  40
0.0039
  41
0.0039
  0
VERTEX
  8
Top
  10
0.6909
  20
0.1496
  42
1
  0
VERTEX
  8
Top
  10
0.6949
  20
0.1496
  42
1
  0
VERTEX
  8
Top
  10
0.6909
  20
0.1496
  42
1
  0
SEQEND
  0
POLYLINE
  8
Top
  6
CONTINUOUS
  66
1
  70
0
  40
0.0079
  41
0.0079
  0
VERTEX
  8
Top
  10
0.6929
  20
0.1496
  42
0
  0
VERTEX
  8
Top
  10
0.6299
  20
0.0866
  42
0
  0
SEQEND
  0
POLYLINE
  8
Top
  6
CONTINUOUS
  66
1
  70
0
  40
0.0039
  41
0.0039
  0
VERTEX
  8
Top
  10
0.6909
  20
0.1496
  42
1
  0
VERTEX
  8
Top
  10
0.6949
  20
0.1496
  42
1
  0
VERTEX
  8
Top
  10
0.6909
  20
0.1496
  42
1
  0
SEQEND
  0
POLYLINE
  8
Top
  6
CONTINUOUS
  66
1
  70
0
  40
0.0039
  41
0.0039
  0
VERTEX
  8
Top
  10
0.628
  20
0.0866
  42
1
  0
VERTEX
  8
Top
  10
0.6319
  20
0.0866
  42
1
  0
VERTEX
  8
Top
  10
0.628
  20
0.0866
  42
1
  0
SEQEND
  0
POLYLINE
  8
Top
  6
CONTINUOUS
  66
1
  70
0
  40
0.0079
  41
0.0079
  0
VERTEX
  8
Top
  10
0.6299
  20
0.0866
  42
0
  0
VERTEX
  8
Top
  10
0.6299
  20
0.0591
  42
0
  0
SEQEND
  0
POLYLINE
  8
Top
  6
CONTINUOUS
  66
1
  70
0
  40
0.0039
  41
0.0039
  0
VERTEX
  8
Top
  10
0.628
  20
0.0866
  42
1
  0
VERTEX
  8
Top
  10
0.6319
  20
0.0866
  42
1
  0
VERTEX
  8
Top
  10
0.628
  20
0.0866
  42
1
  0
SEQEND
  0
POLYLINE
  8
Top
  6
CONTINUOUS
  66
1
  70
0
  40
0.0039
  41
0.0039
  0
VERTEX
  8
Top
  10
0.628
  20
0.0591
  42
1
  0
VERTEX
  8
Top
  10
0.6319
  20
0.0591
  42
1
  0
VERTEX
  8
Top
  10
0.628
  20
0.0591
  42
1
  0
SEQEND
  0
POLYLINE
  8
Top
  6
CONTINUOUS
  66
1
  70
0
  40
0.0079
  41
0.0079
  0
VERTEX
  8
Top
  10
0.6299
  20
0.0591
  42
0
  0
VERTEX
  8
Top
  10
0.6102
  20
0.0394
  42
0
  0
SEQEND
  0
POLYLINE
  8
Top
  6
CONTINUOUS
  66
1
  70
0
  40
0.0039
  41
0.0039
  0
VERTEX
  8
Top
  10
0.628
  20
0.0591
  42
1
  0
VERTEX
  8
Top
  10
0.6319
  20
0.0591
  42
1
  0
VERTEX
  8
Top
  10
0.628
  20
0.0591
  42
1
  0
SEQEND
  0
POLYLINE
  8
Top
  6
CONTINUOUS
  66
1
  70
0
  40
0.0039
  41
0.0039
  0
VERTEX
  8
Top
  10
0.6083
  20
0.0394
  42
1
  0
VERTEX
  8
Top
  10
0.6122
  20
0.0394
  42
1
  0
VERTEX
  8
Top
  10
0.6083
  20
0.0394
  42
1
  0
SEQEND
  0
POLYLINE
  8
Top
  6
CONTINUOUS
  66
1
  70
0
  40
0.0079
  41
0.0079
  0
VERTEX
  8
Top
  10
0.6102
  20
0.0394
  42
0
  0
VERTEX
  8
Top
  10
0.1504
  20
0.0394
  42
0
  0
SEQEND
  0
POLYLINE
  8
Top
  6
CONTINUOUS
  66
1
  70
0
  40
0.0039
  41
0.0039
  0
VERTEX
  8
Top
  10
0.6083
  20
0.0394
  42
1
  0
VERTEX
  8
Top
  10
0.6122
  20
0.0394
  42
1
  0
VERTEX
  8
Top
  10
0.6083
  20
0.0394
  42
1
  0
SEQEND
  0
POLYLINE
  8
Top
  6
CONTINUOUS
  66
1
  70
0
  40
0.0039
  41
0.0039
  0
VERTEX
  8
Top
  10
0.1484
  20
0.0394
  42
1
  0
VERTEX
  8
Top
  10
0.1524
  20
0.0394
  42
1
  0
VERTEX
  8
Top
  10
0.1484
  20
0.0394
  42
1
  0
SEQEND
  0
POLYLINE
  8
Top
  6
CONTINUOUS
  66
1
  70
0
  40
0.0079
  41
0.0079
  0
VERTEX
  8
Top
  10
0.1504
  20
0.0394
  42
0
  0
VERTEX
  8
Top
  10
0.0591
  20
0.1307
  42
0
  0
SEQEND
  0
POLYLINE
  8
Top
  6
CONTINUOUS
  66
1
  70
0
  40
0.0039
  41
0.0039
  0
VERTEX
  8
Top
  10
0.1484
  20
0.0394
  42
1
  0
VERTEX
  8
Top
  10
0.1524
  20
0.0394
  42
1
  0
VERTEX
  8
Top
  10
0.1484
  20
0.0394
  42
1
  0
SEQEND
  0
POLYLINE
  8
Top
  6
CONTINUOUS
  66
1
  70
0
  40
0.0039
  41
0.0039
  0
VERTEX
  8
Top
  10
0.0571
  20
0.1307
  42
1
  0
VERTEX
  8
Top
  10
0.061
  20
0.1307
  42
1
  0
VERTEX
  8
Top
  10
0.0571
  20
0.1307
  42
1
  0
SEQEND
  0
POLYLINE
  8
Top
  6
CONTINUOUS
  66
1
  70
0
  40
0.0118
  41
0.0118
  0
VERTEX
  8
Top
  10
0.0591
  20
0.3307
  42
0
  0
VERTEX
  8
Top
  10
0.185
  20
0.3307
  42
0
  0
SEQEND
  0
POLYLINE
  8
Top
  6
CONTINUOUS
  66
1
  70
0
  40
0.0059
  41
0.0059
  0
VERTEX
  8
Top
  10
0.0561
  20
0.3307
  42
1
  0
VERTEX
  8
Top
  10
0.062
  20
0.3307
  42
1
  0
VERTEX
  8
Top
  10
0.0561
  20
0.3307
  42
1
  0
SEQEND
  0
POLYLINE
  8
Top
  6
CONTINUOUS
  66
1
  70
0
  40
0.0059
  41
0.0059
  0
VERTEX
  8
Top
  10
0.1821
  20
0.3307
  42
1
  0
VERTEX
  8
Top
  10
0.188
  20
0.3307
  42
1
  0
VERTEX
  8
Top
  10
0.1821
  20
0.3307
  42
1
  0
SEQEND
  0
POLYLINE
  8
Top
  6
CONTINUOUS
  66
1
  70
0
  40
0.0118
  41
0.0118
  0
VERTEX
  8
Top
  10
0.185
  20
0.3307
  42
0
  0
VERTEX
  8
Top
  10
0.2087
  20
0.3543
  42
0
  0
SEQEND
  0
POLYLINE
  8
Top
  6
CONTINUOUS
  66
1
  70
0
  40
0.0059
  41
0.0059
  0
VERTEX
  8
Top
  10
0.1821
  20
0.3307
  42
1
  0
VERTEX
  8
Top
  10
0.188
  20
0.3307
  42
1
  0
VERTEX
  8
Top
  10
0.1821
  20
0.3307
  42
1
  0
SEQEND
  0
POLYLINE
  8
Top
  6
CONTINUOUS
  66
1
  70
0
  40
0.0059
  41
0.0059
  0
VERTEX
  8
Top
  10
0.2057
  20
0.3543
  42
1
  0
VERTEX
  8
Top
  10
0.2116
  20
0.3543
  42
1
  0
VERTEX
  8
Top
  10
0.2057
  20
0.3543
  42
1
  0
SEQEND
  0
POLYLINE
  8
Top
  6
CONTINUOUS
  66
1
  70
0
  40
0.0118
  41
0.0118
  0
VERTEX
  8
Top
  10
0.1772
  20
0.2402
  42
0
  0
VERTEX
  8
Top
  10
0.1772
  20
0.3228
  42
0
  0
SEQEND
  0
POLYLINE
  8
Top
  6
CONTINUOUS
  66
1
  70
0
  40
0.0059
  41
0.0059
  0
VERTEX
  8
Top
  10
0.1742
  20
0.2402
  42
1
  0
VERTEX
  8
Top
  10
0.1801
  20
0.2402
  42
1
  0
VERTEX
  8
Top
  10
0.1742
  20
0.2402
  42
1
  0
SEQEND
  0
POLYLINE
  8
Top
  6
CONTINUOUS
  66
1
  70
0
  40
0.0059
  41
0.0059
  0
VERTEX
  8
Top
  10
0.1742
  20
0.3228
  42
1
  0
VERTEX
  8
Top
  10
0.1801
  20
0.3228
  42
1
  0
VERTEX
  8
Top
  10
0.1742
  20
0.3228
  42
1
  0
SEQEND
  0
POLYLINE
  8
Top
  6
CONTINUOUS
  66
1
  70
0
  40
0.0118
  41
0.0118
  0
VERTEX
  8
Top
  10
0.1772
  20
0.3228
  42
0
  0
VERTEX
  8
Top
  10
0.2087
  20
0.3543
  42
0
  0
SEQEND
  0
POLYLINE
  8
Top
  6
CONTINUOUS
  66
1
  70
0
  40
0.0059
  41
0.0059
  0
VERTEX
  8
Top
  10
0.1742
  20
0.3228
  42
1
  0
VERTEX
  8
Top
  10
0.1801
  20
0.3228
  42
1
  0
VERTEX
  8
Top
  10
0.1742
  20
0.3228
  42
1
  0
SEQEND
  0
POLYLINE
  8
Top
  6
CONTINUOUS
  66
1
  70
0
  40
0.0059
  41
0.0059
  0
VERTEX
  8
Top
  10
0.2057
  20
0.3543
  42
1
  0
VERTEX
  8
Top
  10
0.2116
  20
0.3543
  42
1
  0
VERTEX
  8
Top
  10
0.2057
  20
0.3543
  42
1
  0
SEQEND
  0
POLYLINE
  8
Top
  6
CONTINUOUS
  66
1
  70
0
  40
0.0118
  41
0.0118
  0
VERTEX
  8
Top
  10
0.2913
  20
0.5551
  42
0
  0
VERTEX
  8
Top
  10
0.3701
  20
0.5551
  42
0
  0
SEQEND
  0
POLYLINE
  8
Top
  6
CONTINUOUS
  66
1
  70
0
  40
0.0059
  41
0.0059
  0
VERTEX
  8
Top
  10
0.2884
  20
0.5551
  42
1
  0
VERTEX
  8
Top
  10
0.2943
  20
0.5551
  42
1
  0
VERTEX
  8
Top
  10
0.2884
  20
0.5551
  42
1
  0
SEQEND
  0
POLYLINE
  8
Top
  6
CONTINUOUS
  66
1
  70
0
  40
0.0059
  41
0.0059
  0
VERTEX
  8
Top
  10
0.3671
  20
0.5551
  42
1
  0
VERTEX
  8
Top
  10
0.373
  20
0.5551
  42
1
  0
VERTEX
  8
Top
  10
0.3671
  20
0.5551
  42
1
  0
SEQEND
  0
POLYLINE
  8
Top
  6
CONTINUOUS
  66
1
  70
0
  40
0.0118
  41
0.0118
  0
VERTEX
  8
Top
  10
0.3701
  20
0.5551
  42
0
  0
VERTEX
  8
Top
  10
0.3701
  20
0.5551
  42
0
  0
SEQEND
  0
POLYLINE
  8
Top
  6
CONTINUOUS
  66
1
  70
0
  40
0.0059
  41
0.0059
  0
VERTEX
  8
Top
  10
0.3671
  20
0.5551
  42
1
  0
VERTEX
  8
Top
  10
0.373
  20
0.5551
  42
1
  0
VERTEX
  8
Top
  10
0.3671
  20
0.5551
  42
1
  0
SEQEND
  0
POLYLINE
  8
Top
  6
CONTINUOUS
  66
1
  70
0
  40
0.0118
  41
0.0118
  0
VERTEX
  8
Top
  10
0.563
  20
0.1654
  42
0
  0
VERTEX
  8
Top
  10
0.563
  20
0.185
  42
0
  0
SEQEND
  0
POLYLINE
  8
Top
  6
CONTINUOUS
  66
1
  70
0
  40
0.0059
  41
0.0059
  0
VERTEX
  8
Top
  10
0.56
  20
0.1654
  42
1
  0
VERTEX
  8
Top
  10
0.5659
  20
0.1654
  42
1
  0
VERTEX
  8
Top
  10
0.56
  20
0.1654
  42
1
  0
SEQEND
  0
POLYLINE
  8
Top
  6
CONTINUOUS
  66
1
  70
0
  40
0.0059
  41
0.0059
  0
VERTEX
  8
Top
  10
0.56
  20
0.185
  42
1
  0
VERTEX
  8
Top
  10
0.5659
  20
0.185
  42
1
  0
VERTEX
  8
Top
  10
0.56
  20
0.185
  42
1
  0
SEQEND
  0
POLYLINE
  8
Top
  6
CONTINUOUS
  66
1
  70
0
  40
0.0118
  41
0.0118
  0
VERTEX
  8
Top
  10
0.563
  20
0.185
  42
0
  0
VERTEX
  8
Top
  10
0.5866
  20
0.2087
  42
0
  0
SEQEND
  0
POLYLINE
  8
Top
  6
CONTINUOUS
  66
1
  70
0
  40
0.0059
  41
0.0059
  0
VERTEX
  8
Top
  10
0.56
  20
0.185
  42
1
  0
VERTEX
  8
Top
  10
0.5659
  20
0.185
  42
1
  0
VERTEX
  8
Top
  10
0.56
  20
0.185
  42
1
  0
SEQEND
  0
POLYLINE
  8
Top
  6
CONTINUOUS
  66
1
  70
0
  40
0.0059
  41
0.0059
  0
VERTEX
  8
Top
  10
0.5837
  20
0.2087
  42
1
  0
VERTEX
  8
Top
  10
0.5896
  20
0.2087
  42
1
  0
VERTEX
  8
Top
  10
0.5837
  20
0.2087
  42
1
  0
SEQEND
  0
POLYLINE
  8
Top
  6
CONTINUOUS
  66
1
  70
0
  40
0.0118
  41
0.0118
  0
VERTEX
  8
Top
  10
0.5866
  20
0.2087
  42
0
  0
VERTEX
  8
Top
  10
0.5866
  20
0.2657
  42
0
  0
SEQEND
  0
POLYLINE
  8
Top
  6
CONTINUOUS
  66
1
  70
0
  40
0.0059
  41
0.0059
  0
VERTEX
  8
Top
  10
0.5837
  20
0.2087
  42
1
  0
VERTEX
  8
Top
  10
0.5896
  20
0.2087
  42
1
  0
VERTEX
  8
Top
  10
0.5837
  20
0.2087
  42
1
  0
SEQEND
  0
POLYLINE
  8
Top
  6
CONTINUOUS
  66
1
  70
0
  40
0.0059
  41
0.0059
  0
VERTEX
  8
Top
  10
0.5837
  20
0.2657
  42
1
  0
VERTEX
  8
Top
  10
0.5896
  20
0.2657
  42
1
  0
VERTEX
  8
Top
  10
0.5837
  20
0.2657
  42
1
  0
SEQEND
  0
POLYLINE
  8
Top
  6
CONTINUOUS
  66
1
  70
0
  40
0.0118
  41
0.0118
  0
VERTEX
  8
Top
  10
0.5866
  20
0.2657
  42
0
  0
VERTEX
  8
Top
  10
0.5886
  20
0.2677
  42
0
  0
SEQEND
  0
POLYLINE
  8
Top
  6
CONTINUOUS
  66
1
  70
0
  40
0.0059
  41
0.0059
  0
VERTEX
  8
Top
  10
0.5837
  20
0.2657
  42
1
  0
VERTEX
  8
Top
  10
0.5896
  20
0.2657
  42
1
  0
VERTEX
  8
Top
  10
0.5837
  20
0.2657
  42
1
  0
SEQEND
  0
POLYLINE
  8
Top
  6
CONTINUOUS
  66
1
  70
0
  40
0.0059
  41
0.0059
  0
VERTEX
  8
Top
  10
0.5856
  20
0.2677
  42
1
  0
VERTEX
  8
Top
  10
0.5915
  20
0.2677
  42
1
  0
VERTEX
  8
Top
  10
0.5856
  20
0.2677
  42
1
  0
SEQEND
  0
POLYLINE
  8
Top
  6
CONTINUOUS
  66
1
  70
0
  40
0.0118
  41
0.0118
  0
VERTEX
  8
Top
  10
0.563
  20
0.1654
  42
0
  0
VERTEX
  8
Top
  10
0.5157
  20
0.2126
  42
0
  0
SEQEND
  0
POLYLINE
  8
Top
  6
CONTINUOUS
  66
1
  70
0
  40
0.0059
  41
0.0059
  0
VERTEX
  8
Top
  10
0.56
  20
0.1654
  42
1
  0
VERTEX
  8
Top
  10
0.5659
  20
0.1654
  42
1
  0
VERTEX
  8
Top
  10
0.56
  20
0.1654
  42
1
  0
SEQEND
  0
POLYLINE
  8
Top
  6
CONTINUOUS
  66
1
  70
0
  40
0.0059
  41
0.0059
  0
VERTEX
  8
Top
  10
0.5128
  20
0.2126
  42
1
  0
VERTEX
  8
Top
  10
0.5187
  20
0.2126
  42
1
  0
VERTEX
  8
Top
  10
0.5128
  20
0.2126
  42
1
  0
SEQEND
  0
POLYLINE
  8
Top
  6
CONTINUOUS
  66
1
  70
0
  40
0.0118
  41
0.0118
  0
VERTEX
  8
Top
  10
0.5157
  20
0.2126
  42
0
  0
VERTEX
  8
Top
  10
0.5157
  20
0.311
  42
0
  0
SEQEND
  0
POLYLINE
  8
Top
  6
CONTINUOUS
  66
1
  70
0
  40
0.0059
  41
0.0059
  0
VERTEX
  8
Top
  10
0.5128
  20
0.2126
  42
1
  0
VERTEX
  8
Top
  10
0.5187
  20
0.2126
  42
1
  0
VERTEX
  8
Top
  10
0.5128
  20
0.2126
  42
1
  0
SEQEND
  0
POLYLINE
  8
Top
  6
CONTINUOUS
  66
1
  70
0
  40
0.0059
  41
0.0059
  0
VERTEX
  8
Top
  10
0.5128
  20
0.311
  42
1
  0
VERTEX
  8
Top
  10
0.5187
  20
0.311
  42
1
  0
VERTEX
  8
Top
  10
0.5128
  20
0.311
  42
1
  0
SEQEND
  0
POLYLINE
  8
Top
  6
CONTINUOUS
  66
1
  70
0
  40
0.0118
  41
0.0118
  0
VERTEX
  8
Top
  10
0.5157
  20
0.311
  42
0
  0
VERTEX
  8
Top
  10
0.5079
  20
0.3189
  42
0
  0
SEQEND
  0
POLYLINE
  8
Top
  6
CONTINUOUS
  66
1
  70
0
  40
0.0059
  41
0.0059
  0
VERTEX
  8
Top
  10
0.5128
  20
0.311
  42
1
  0
VERTEX
  8
Top
  10
0.5187
  20
0.311
  42
1
  0
VERTEX
  8
Top
  10
0.5128
  20
0.311
  42
1
  0
SEQEND
  0
POLYLINE
  8
Top
  6
CONTINUOUS
  66
1
  70
0
  40
0.0059
  41
0.0059
  0
VERTEX
  8
Top
  10
0.5049
  20
0.3189
  42
1
  0
VERTEX
  8
Top
  10
0.5108
  20
0.3189
  42
1
  0
VERTEX
  8
Top
  10
0.5049
  20
0.3189
  42
1
  0
SEQEND
  0
POLYLINE
  8
Top
  6
CONTINUOUS
  66
1
  70
0
  40
0.0118
  41
0.0118
  0
VERTEX
  8
Top
  10
0.5079
  20
0.3189
  42
0
  0
VERTEX
  8
Top
  10
0.4528
  20
0.3189
  42
0
  0
SEQEND
  0
POLYLINE
  8
Top
  6
CONTINUOUS
  66
1
  70
0
  40
0.0059
  41
0.0059
  0
VERTEX
  8
Top
  10
0.5049
  20
0.3189
  42
1
  0
VERTEX
  8
Top
  10
0.5108
  20
0.3189
  42
1
  0
VERTEX
  8
Top
  10
0.5049
  20
0.3189
  42
1
  0
SEQEND
  0
POLYLINE
  8
Top
  6
CONTINUOUS
  66
1
  70
0
  40
0.0059
  41
0.0059
  0
VERTEX
  8
Top
  10
0.4498
  20
0.3189
  42
1
  0
VERTEX
  8
Top
  10
0.4557
  20
0.3189
  42
1
  0
VERTEX
  8
Top
  10
0.4498
  20
0.3189
  42
1
  0
SEQEND
  0
POLYLINE
  8
Top
  6
CONTINUOUS
  66
1
  70
0
  40
0.0118
  41
0.0118
  0
VERTEX
  8
Top
  10
0.2913
  20
0.5551
  42
0
  0
VERTEX
  8
Top
  10
0.2047
  20
0.5551
  42
0
  0
SEQEND
  0
POLYLINE
  8
Top
  6
CONTINUOUS
  66
1
  70
0
  40
0.0059
  41
0.0059
  0
VERTEX
  8
Top
  10
0.2884
  20
0.5551
  42
1
  0
VERTEX
  8
Top
  10
0.2943
  20
0.5551
  42
1
  0
VERTEX
  8
Top
  10
0.2884
  20
0.5551
  42
1
  0
SEQEND
  0
POLYLINE
  8
Top
  6
CONTINUOUS
  66
1
  70
0
  40
0.0059
  41
0.0059
  0
VERTEX
  8
Top
  10
0.2018
  20
0.5551
  42
1
  0
VERTEX
  8
Top
  10
0.2077
  20
0.5551
  42
1
  0
VERTEX
  8
Top
  10
0.2018
  20
0.5551
  42
1
  0
SEQEND
  0
POLYLINE
  8
Top
  6
CONTINUOUS
  66
1
  70
0
  40
0.0118
  41
0.0118
  0
VERTEX
  8
Top
  10
0.2047
  20
0.5551
  42
0
  0
VERTEX
  8
Top
  10
0.2047
  20
0.5551
  42
0
  0
SEQEND
  0
POLYLINE
  8
Top
  6
CONTINUOUS
  66
1
  70
0
  40
0.0059
  41
0.0059
  0
VERTEX
  8
Top
  10
0.2018
  20
0.5551
  42
1
  0
VERTEX
  8
Top
  10
0.2077
  20
0.5551
  42
1
  0
VERTEX
  8
Top
  10
0.2018
  20
0.5551
  42
1
  0
SEQEND
  0
POLYLINE
  8
Top
  6
CONTINUOUS
  66
1
  70
0
  40
0.0118
  41
0.0118
  0
VERTEX
  8
Top
  10
0.563
  20
0.1654
  42
0
  0
VERTEX
  8
Top
  10
0.2362
  20
0.1654
  42
0
  0
SEQEND
  0
POLYLINE
  8
Top
  6
CONTINUOUS
  66
1
  70
0
  40
0.0059
  41
0.0059
  0
VERTEX
  8
Top
  10
0.56
  20
0.1654
  42
1
  0
VERTEX
  8
Top
  10
0.5659
  20
0.1654
  42
1
  0
VERTEX
  8
Top
  10
0.56
  20
0.1654
  42
1
  0
SEQEND
  0
POLYLINE
  8
Top
  6
CONTINUOUS
  66
1
  70
0
  40
0.0059
  41
0.0059
  0
VERTEX
  8
Top
  10
0.2333
  20
0.1654
  42
1
  0
VERTEX
  8
Top
  10
0.2392
  20
0.1654
  42
1
  0
VERTEX
  8
Top
  10
0.2333
  20
0.1654
  42
1
  0
SEQEND
  0
POLYLINE
  8
Top
  6
CONTINUOUS
  66
1
  70
0
  40
0.0079
  41
0.0079
  0
VERTEX
  8
Top
  10
0.2441
  20
0.2402
  42
0
  0
VERTEX
  8
Top
  10
0.3346
  20
0.2402
  42
0
  0
SEQEND
  0
POLYLINE
  8
Top
  6
CONTINUOUS
  66
1
  70
0
  40
0.0039
  41
0.0039
  0
VERTEX
  8
Top
  10
0.2421
  20
0.2402
  42
1
  0
VERTEX
  8
Top
  10
0.2461
  20
0.2402
  42
1
  0
VERTEX
  8
Top
  10
0.2421
  20
0.2402
  42
1
  0
SEQEND
  0
POLYLINE
  8
Top
  6
CONTINUOUS
  66
1
  70
0
  40
0.0039
  41
0.0039
  0
VERTEX
  8
Top
  10
0.3327
  20
0.2402
  42
1
  0
VERTEX
  8
Top
  10
0.3366
  20
0.2402
  42
1
  0
VERTEX
  8
Top
  10
0.3327
  20
0.2402
  42
1
  0
SEQEND
  0
POLYLINE
  8
Top
  6
CONTINUOUS
  66
1
  70
0
  40
0.0079
  41
0.0079
  0
VERTEX
  8
Top
  10
0.3346
  20
0.2402
  42
0
  0
VERTEX
  8
Top
  10
0.3346
  20
0.2402
  42
0
  0
SEQEND
  0
POLYLINE
  8
Top
  6
CONTINUOUS
  66
1
  70
0
  40
0.0039
  41
0.0039
  0
VERTEX
  8
Top
  10
0.3327
  20
0.2402
  42
1
  0
VERTEX
  8
Top
  10
0.3366
  20
0.2402
  42
1
  0
VERTEX
  8
Top
  10
0.3327
  20
0.2402
  42
1
  0
SEQEND
  0
POLYLINE
  8
Top
  6
CONTINUOUS
  66
1
  70
0
  40
0.0079
  41
0.0079
  0
VERTEX
  8
Top
  10
0.0591
  20
0.2307
  42
0
  0
VERTEX
  8
Top
  10
0.0591
  20
0.2283
  42
0
  0
SEQEND
  0
POLYLINE
  8
Top
  6
CONTINUOUS
  66
1
  70
0
  40
0.0039
  41
0.0039
  0
VERTEX
  8
Top
  10
0.0571
  20
0.2307
  42
1
  0
VERTEX
  8
Top
  10
0.061
  20
0.2307
  42
1
  0
VERTEX
  8
Top
  10
0.0571
  20
0.2307
  42
1
  0
SEQEND
  0
POLYLINE
  8
Top
  6
CONTINUOUS
  66
1
  70
0
  40
0.0039
  41
0.0039
  0
VERTEX
  8
Top
  10
0.0571
  20
0.2283
  42
1
  0
VERTEX
  8
Top
  10
0.061
  20
0.2283
  42
1
  0
VERTEX
  8
Top
  10
0.0571
  20
0.2283
  42
1
  0
SEQEND
  0
POLYLINE
  8
Top
  6
CONTINUOUS
  66
1
  70
0
  40
0.0079
  41
0.0079
  0
VERTEX
  8
Top
  10
0.0591
  20
0.2283
  42
0
  0
VERTEX
  8
Top
  10
0.0866
  20
0.2008
  42
0
  0
SEQEND
  0
POLYLINE
  8
Top
  6
CONTINUOUS
  66
1
  70
0
  40
0.0039
  41
0.0039
  0
VERTEX
  8
Top
  10
0.0571
  20
0.2283
  42
1
  0
VERTEX
  8
Top
  10
0.061
  20
0.2283
  42
1
  0
VERTEX
  8
Top
  10
0.0571
  20
0.2283
  42
1
  0
SEQEND
  0
POLYLINE
  8
Top
  6
CONTINUOUS
  66
1
  70
0
  40
0.0039
  41
0.0039
  0
VERTEX
  8
Top
  10
0.0846
  20
0.2008
  42
1
  0
VERTEX
  8
Top
  10
0.0886
  20
0.2008
  42
1
  0
VERTEX
  8
Top
  10
0.0846
  20
0.2008
  42
1
  0
SEQEND
  0
POLYLINE
  8
Top
  6
CONTINUOUS
  66
1
  70
0
  40
0.0079
  41
0.0079
  0
VERTEX
  8
Top
  10
0.0866
  20
0.2008
  42
0
  0
VERTEX
  8
Top
  10
0.374
  20
0.2008
  42
0
  0
SEQEND
  0
POLYLINE
  8
Top
  6
CONTINUOUS
  66
1
  70
0
  40
0.0039
  41
0.0039
  0
VERTEX
  8
Top
  10
0.0846
  20
0.2008
  42
1
  0
VERTEX
  8
Top
  10
0.0886
  20
0.2008
  42
1
  0
VERTEX
  8
Top
  10
0.0846
  20
0.2008
  42
1
  0
SEQEND
  0
POLYLINE
  8
Top
  6
CONTINUOUS
  66
1
  70
0
  40
0.0039
  41
0.0039
  0
VERTEX
  8
Top
  10
0.372
  20
0.2008
  42
1
  0
VERTEX
  8
Top
  10
0.376
  20
0.2008
  42
1
  0
VERTEX
  8
Top
  10
0.372
  20
0.2008
  42
1
  0
SEQEND
  0
POLYLINE
  8
Top
  6
CONTINUOUS
  66
1
  70
0
  40
0.0079
  41
0.0079
  0
VERTEX
  8
Top
  10
0.374
  20
0.2008
  42
0
  0
VERTEX
  8
Top
  10
0.4134
  20
0.2402
  42
0
  0
SEQEND
  0
POLYLINE
  8
Top
  6
CONTINUOUS
  66
1
  70
0
  40
0.0039
  41
0.0039
  0
VERTEX
  8
Top
  10
0.372
  20
0.2008
  42
1
  0
VERTEX
  8
Top
  10
0.376
  20
0.2008
  42
1
  0
VERTEX
  8
Top
  10
0.372
  20
0.2008
  42
1
  0
SEQEND
  0
POLYLINE
  8
Top
  6
CONTINUOUS
  66
1
  70
0
  40
0.0039
  41
0.0039
  0
VERTEX
  8
Top
  10
0.4114
  20
0.2402
  42
1
  0
VERTEX
  8
Top
  10
0.4154
  20
0.2402
  42
1
  0
VERTEX
  8
Top
  10
0.4114
  20
0.2402
  42
1
  0
SEQEND
  0
POLYLINE
  8
Top
  6
CONTINUOUS
  66
1
  70
0
  40
0.0118
  41
0.0118
  0
VERTEX
  8
Top
  10
0.2087
  20
0.4646
  42
0
  0
VERTEX
  8
Top
  10
0.2677
  20
0.4646
  42
0
  0
SEQEND
  0
POLYLINE
  8
Top
  6
CONTINUOUS
  66
1
  70
0
  40
0.0059
  41
0.0059
  0
VERTEX
  8
Top
  10
0.2057
  20
0.4646
  42
1
  0
VERTEX
  8
Top
  10
0.2116
  20
0.4646
  42
1
  0
VERTEX
  8
Top
  10
0.2057
  20
0.4646
  42
1
  0
SEQEND
  0
POLYLINE
  8
Top
  6
CONTINUOUS
  66
1
  70
0
  40
0.0059
  41
0.0059
  0
VERTEX
  8
Top
  10
0.2648
  20
0.4646
  42
1
  0
VERTEX
  8
Top
  10
0.2707
  20
0.4646
  42
1
  0
VERTEX
  8
Top
  10
0.2648
  20
0.4646
  42
1
  0
SEQEND
  0
POLYLINE
  8
Top
  6
CONTINUOUS
  66
1
  70
0
  40
0.0118
  41
0.0118
  0
VERTEX
  8
Top
  10
0.2677
  20
0.4646
  42
0
  0
VERTEX
  8
Top
  10
0.2913
  20
0.4882
  42
0
  0
SEQEND
  0
POLYLINE
  8
Top
  6
CONTINUOUS
  66
1
  70
0
  40
0.0059
  41
0.0059
  0
VERTEX
  8
Top
  10
0.2648
  20
0.4646
  42
1
  0
VERTEX
  8
Top
  10
0.2707
  20
0.4646
  42
1
  0
VERTEX
  8
Top
  10
0.2648
  20
0.4646
  42
1
  0
SEQEND
  0
POLYLINE
  8
Top
  6
CONTINUOUS
  66
1
  70
0
  40
0.0059
  41
0.0059
  0
VERTEX
  8
Top
  10
0.2884
  20
0.4882
  42
1
  0
VERTEX
  8
Top
  10
0.2943
  20
0.4882
  42
1
  0
VERTEX
  8
Top
  10
0.2884
  20
0.4882
  42
1
  0
SEQEND
  0
POLYLINE
  8
Top
  6
CONTINUOUS
  66
1
  70
0
  40
0.0118
  41
0.0118
  0
VERTEX
  8
Top
  10
0.2913
  20
0.4882
  42
0
  0
VERTEX
  8
Top
  10
0.3701
  20
0.4882
  42
0
  0
SEQEND
  0
POLYLINE
  8
Top
  6
CONTINUOUS
  66
1
  70
0
  40
0.0059
  41
0.0059
  0
VERTEX
  8
Top
  10
0.2884
  20
0.4882
  42
1
  0
VERTEX
  8
Top
  10
0.2943
  20
0.4882
  42
1
  0
VERTEX
  8
Top
  10
0.2884
  20
0.4882
  42
1
  0
SEQEND
  0
POLYLINE
  8
Top
  6
CONTINUOUS
  66
1
  70
0
  40
0.0059
  41
0.0059
  0
VERTEX
  8
Top
  10
0.3671
  20
0.4882
  42
1
  0
VERTEX
  8
Top
  10
0.373
  20
0.4882
  42
1
  0
VERTEX
  8
Top
  10
0.3671
  20
0.4882
  42
1
  0
SEQEND
  0
POLYLINE
  8
Top
  6
CONTINUOUS
  66
1
  70
0
  40
0.0118
  41
0.0118
  0
VERTEX
  8
Top
  10
0.3701
  20
0.4882
  42
0
  0
VERTEX
  8
Top
  10
0.3701
  20
0.4882
  42
0
  0
SEQEND
  0
POLYLINE
  8
Top
  6
CONTINUOUS
  66
1
  70
0
  40
0.0059
  41
0.0059
  0
VERTEX
  8
Top
  10
0.3671
  20
0.4882
  42
1
  0
VERTEX
  8
Top
  10
0.373
  20
0.4882
  42
1
  0
VERTEX
  8
Top
  10
0.3671
  20
0.4882
  42
1
  0
SEQEND
  0
POLYLINE
  8
Top
  6
CONTINUOUS
  66
1
  70
0
  40
0.0118
  41
0.0118
  0
VERTEX
  8
Top
  10
0.3701
  20
0.4882
  42
0
  0
VERTEX
  8
Top
  10
0.4488
  20
0.4882
  42
0
  0
SEQEND
  0
POLYLINE
  8
Top
  6
CONTINUOUS
  66
1
  70
0
  40
0.0059
  41
0.0059
  0
VERTEX
  8
Top
  10
0.3671
  20
0.4882
  42
1
  0
VERTEX
  8
Top
  10
0.373
  20
0.4882
  42
1
  0
VERTEX
  8
Top
  10
0.3671
  20
0.4882
  42
1
  0
SEQEND
  0
POLYLINE
  8
Top
  6
CONTINUOUS
  66
1
  70
0
  40
0.0059
  41
0.0059
  0
VERTEX
  8
Top
  10
0.4459
  20
0.4882
  42
1
  0
VERTEX
  8
Top
  10
0.4518
  20
0.4882
  42
1
  0
VERTEX
  8
Top
  10
0.4459
  20
0.4882
  42
1
  0
SEQEND
  0
POLYLINE
  8
Top
  6
CONTINUOUS
  66
1
  70
0
  40
0.0118
  41
0.0118
  0
VERTEX
  8
Top
  10
0.4488
  20
0.4882
  42
0
  0
VERTEX
  8
Top
  10
0.4488
  20
0.4882
  42
0
  0
SEQEND
  0
POLYLINE
  8
Top
  6
CONTINUOUS
  66
1
  70
0
  40
0.0059
  41
0.0059
  0
VERTEX
  8
Top
  10
0.4459
  20
0.4882
  42
1
  0
VERTEX
  8
Top
  10
0.4518
  20
0.4882
  42
1
  0
VERTEX
  8
Top
  10
0.4459
  20
0.4882
  42
1
  0
SEQEND
  0
POLYLINE
  8
Top
  6
CONTINUOUS
  66
1
  70
0
  40
0.0118
  41
0.0118
  0
VERTEX
  8
Top
  10
0.4488
  20
0.4882
  42
0
  0
VERTEX
  8
Top
  10
0.4921
  20
0.4882
  42
0
  0
SEQEND
  0
POLYLINE
  8
Top
  6
CONTINUOUS
  66
1
  70
0
  40
0.0059
  41
0.0059
  0
VERTEX
  8
Top
  10
0.4459
  20
0.4882
  42
1
  0
VERTEX
  8
Top
  10
0.4518
  20
0.4882
  42
1
  0
VERTEX
  8
Top
  10
0.4459
  20
0.4882
  42
1
  0
SEQEND
  0
POLYLINE
  8
Top
  6
CONTINUOUS
  66
1
  70
0
  40
0.0059
  41
0.0059
  0
VERTEX
  8
Top
  10
0.4892
  20
0.4882
  42
1
  0
VERTEX
  8
Top
  10
0.4951
  20
0.4882
  42
1
  0
VERTEX
  8
Top
  10
0.4892
  20
0.4882
  42
1
  0
SEQEND
  0
POLYLINE
  8
Top
  6
CONTINUOUS
  66
1
  70
0
  40
0.0118
  41
0.0118
  0
VERTEX
  8
Top
  10
0.4921
  20
0.4882
  42
0
  0
VERTEX
  8
Top
  10
0.4921
  20
0.4882
  42
0
  0
SEQEND
  0
POLYLINE
  8
Top
  6
CONTINUOUS
  66
1
  70
0
  40
0.0059
  41
0.0059
  0
VERTEX
  8
Top
  10
0.4892
  20
0.4882
  42
1
  0
VERTEX
  8
Top
  10
0.4951
  20
0.4882
  42
1
  0
VERTEX
  8
Top
  10
0.4892
  20
0.4882
  42
1
  0
SEQEND
  0
POLYLINE
  8
Top
  6
CONTINUOUS
  66
1
  70
0
  40
0.0118
  41
0.0118
  0
VERTEX
  8
Top
  10
0.4921
  20
0.4882
  42
0
  0
VERTEX
  8
Top
  10
0.5276
  20
0.4882
  42
0
  0
SEQEND
  0
POLYLINE
  8
Top
  6
CONTINUOUS
  66
1
  70
0
  40
0.0059
  41
0.0059
  0
VERTEX
  8
Top
  10
0.4892
  20
0.4882
  42
1
  0
VERTEX
  8
Top
  10
0.4951
  20
0.4882
  42
1
  0
VERTEX
  8
Top
  10
0.4892
  20
0.4882
  42
1
  0
SEQEND
  0
POLYLINE
  8
Top
  6
CONTINUOUS
  66
1
  70
0
  40
0.0059
  41
0.0059
  0
VERTEX
  8
Top
  10
0.5246
  20
0.4882
  42
1
  0
VERTEX
  8
Top
  10
0.5305
  20
0.4882
  42
1
  0
VERTEX
  8
Top
  10
0.5246
  20
0.4882
  42
1
  0
SEQEND
  0
POLYLINE
  8
Top
  6
CONTINUOUS
  66
1
  70
0
  40
0.0118
  41
0.0118
  0
VERTEX
  8
Top
  10
0.5276
  20
0.4882
  42
0
  0
VERTEX
  8
Top
  10
0.5827
  20
0.4882
  42
0
  0
SEQEND
  0
POLYLINE
  8
Top
  6
CONTINUOUS
  66
1
  70
0
  40
0.0059
  41
0.0059
  0
VERTEX
  8
Top
  10
0.5246
  20
0.4882
  42
1
  0
VERTEX
  8
Top
  10
0.5305
  20
0.4882
  42
1
  0
VERTEX
  8
Top
  10
0.5246
  20
0.4882
  42
1
  0
SEQEND
  0
POLYLINE
  8
Top
  6
CONTINUOUS
  66
1
  70
0
  40
0.0059
  41
0.0059
  0
VERTEX
  8
Top
  10
0.5797
  20
0.4882
  42
1
  0
VERTEX
  8
Top
  10
0.5856
  20
0.4882
  42
1
  0
VERTEX
  8
Top
  10
0.5797
  20
0.4882
  42
1
  0
SEQEND
  0
POLYLINE
  8
Top
  6
CONTINUOUS
  66
1
  70
0
  40
0.0118
  41
0.0118
  0
VERTEX
  8
Top
  10
0.5827
  20
0.4882
  42
0
  0
VERTEX
  8
Top
  10
0.5866
  20
0.4921
  42
0
  0
SEQEND
  0
POLYLINE
  8
Top
  6
CONTINUOUS
  66
1
  70
0
  40
0.0059
  41
0.0059
  0
VERTEX
  8
Top
  10
0.5797
  20
0.4882
  42
1
  0
VERTEX
  8
Top
  10
0.5856
  20
0.4882
  42
1
  0
VERTEX
  8
Top
  10
0.5797
  20
0.4882
  42
1
  0
SEQEND
  0
POLYLINE
  8
Top
  6
CONTINUOUS
  66
1
  70
0
  40
0.0059
  41
0.0059
  0
VERTEX
  8
Top
  10
0.5837
  20
0.4921
  42
1
  0
VERTEX
  8
Top
  10
0.5896
  20
0.4921
  42
1
  0
VERTEX
  8
Top
  10
0.5837
  20
0.4921
  42
1
  0
SEQEND
  0
POLYLINE
  8
Top
  6
CONTINUOUS
  66
1
  70
0
  40
0.0118
  41
0.0118
  0
VERTEX
  8
Top
  10
0.5276
  20
0.4882
  42
0
  0
VERTEX
  8
Top
  10
0.5276
  20
0.3937
  42
0
  0
SEQEND
  0
POLYLINE
  8
Top
  6
CONTINUOUS
  66
1
  70
0
  40
0.0059
  41
0.0059
  0
VERTEX
  8
Top
  10
0.5246
  20
0.4882
  42
1
  0
VERTEX
  8
Top
  10
0.5305
  20
0.4882
  42
1
  0
VERTEX
  8
Top
  10
0.5246
  20
0.4882
  42
1
  0
SEQEND
  0
POLYLINE
  8
Top
  6
CONTINUOUS
  66
1
  70
0
  40
0.0059
  41
0.0059
  0
VERTEX
  8
Top
  10
0.5246
  20
0.3937
  42
1
  0
VERTEX
  8
Top
  10
0.5305
  20
0.3937
  42
1
  0
VERTEX
  8
Top
  10
0.5246
  20
0.3937
  42
1
  0
SEQEND
  0
POLYLINE
  8
Top
  6
CONTINUOUS
  66
1
  70
0
  40
0.0118
  41
0.0118
  0
VERTEX
  8
Top
  10
0.5276
  20
0.3937
  42
0
  0
VERTEX
  8
Top
  10
0.5512
  20
0.3701
  42
0
  0
SEQEND
  0
POLYLINE
  8
Top
  6
CONTINUOUS
  66
1
  70
0
  40
0.0059
  41
0.0059
  0
VERTEX
  8
Top
  10
0.5246
  20
0.3937
  42
1
  0
VERTEX
  8
Top
  10
0.5305
  20
0.3937
  42
1
  0
VERTEX
  8
Top
  10
0.5246
  20
0.3937
  42
1
  0
SEQEND
  0
POLYLINE
  8
Top
  6
CONTINUOUS
  66
1
  70
0
  40
0.0059
  41
0.0059
  0
VERTEX
  8
Top
  10
0.5482
  20
0.3701
  42
1
  0
VERTEX
  8
Top
  10
0.5541
  20
0.3701
  42
1
  0
VERTEX
  8
Top
  10
0.5482
  20
0.3701
  42
1
  0
SEQEND
  0
POLYLINE
  8
Top
  6
CONTINUOUS
  66
1
  70
0
  40
0.0118
  41
0.0118
  0
VERTEX
  8
Top
  10
0.4528
  20
0.2402
  42
0
  0
VERTEX
  8
Top
  10
0.4882
  20
0.2402
  42
0
  0
SEQEND
  0
POLYLINE
  8
Top
  6
CONTINUOUS
  66
1
  70
0
  40
0.0059
  41
0.0059
  0
VERTEX
  8
Top
  10
0.4498
  20
0.2402
  42
1
  0
VERTEX
  8
Top
  10
0.4557
  20
0.2402
  42
1
  0
VERTEX
  8
Top
  10
0.4498
  20
0.2402
  42
1
  0
SEQEND
  0
POLYLINE
  8
Top
  6
CONTINUOUS
  66
1
  70
0
  40
0.0059
  41
0.0059
  0
VERTEX
  8
Top
  10
0.4852
  20
0.2402
  42
1
  0
VERTEX
  8
Top
  10
0.4911
  20
0.2402
  42
1
  0
VERTEX
  8
Top
  10
0.4852
  20
0.2402
  42
1
  0
SEQEND
  0
POLYLINE
  8
Top
  6
CONTINUOUS
  66
1
  70
0
  40
0.0118
  41
0.0118
  0
VERTEX
  8
Top
  10
0.4882
  20
0.2402
  42
0
  0
VERTEX
  8
Top
  10
0.4882
  20
0.2402
  42
0
  0
SEQEND
  0
POLYLINE
  8
Top
  6
CONTINUOUS
  66
1
  70
0
  40
0.0059
  41
0.0059
  0
VERTEX
  8
Top
  10
0.4852
  20
0.2402
  42
1
  0
VERTEX
  8
Top
  10
0.4911
  20
0.2402
  42
1
  0
VERTEX
  8
Top
  10
0.4852
  20
0.2402
  42
1
  0
SEQEND
  0
POLYLINE
  8
Top
  6
CONTINUOUS
  66
1
  70
0
  40
0.0079
  41
0.0079
  0
VERTEX
  8
Top
  10
0.4921
  20
0.4291
  42
0
  0
VERTEX
  8
Top
  10
0.4921
  20
0.4882
  42
0
  0
SEQEND
  0
POLYLINE
  8
Top
  6
CONTINUOUS
  66
1
  70
0
  40
0.0039
  41
0.0039
  0
VERTEX
  8
Top
  10
0.4902
  20
0.4291
  42
1
  0
VERTEX
  8
Top
  10
0.4941
  20
0.4291
  42
1
  0
VERTEX
  8
Top
  10
0.4902
  20
0.4291
  42
1
  0
SEQEND
  0
POLYLINE
  8
Top
  6
CONTINUOUS
  66
1
  70
0
  40
0.0039
  41
0.0039
  0
VERTEX
  8
Top
  10
0.4902
  20
0.4882
  42
1
  0
VERTEX
  8
Top
  10
0.4941
  20
0.4882
  42
1
  0
VERTEX
  8
Top
  10
0.4902
  20
0.4882
  42
1
  0
SEQEND
  0
POLYLINE
  8
Top
  6
CONTINUOUS
  66
1
  70
0
  40
0.0118
  41
0.0118
  0
VERTEX
  8
Top
  10
0.0591
  20
0.4307
  42
0
  0
VERTEX
  8
Top
  10
0.1748
  20
0.4307
  42
0
  0
SEQEND
  0
POLYLINE
  8
Top
  6
CONTINUOUS
  66
1
  70
0
  40
0.0059
  41
0.0059
  0
VERTEX
  8
Top
  10
0.0561
  20
0.4307
  42
1
  0
VERTEX
  8
Top
  10
0.062
  20
0.4307
  42
1
  0
VERTEX
  8
Top
  10
0.0561
  20
0.4307
  42
1
  0
SEQEND
  0
POLYLINE
  8
Top
  6
CONTINUOUS
  66
1
  70
0
  40
0.0059
  41
0.0059
  0
VERTEX
  8
Top
  10
0.1719
  20
0.4307
  42
1
  0
VERTEX
  8
Top
  10
0.1778
  20
0.4307
  42
1
  0
VERTEX
  8
Top
  10
0.1719
  20
0.4307
  42
1
  0
SEQEND
  0
POLYLINE
  8
Top
  6
CONTINUOUS
  66
1
  70
0
  40
0.0118
  41
0.0118
  0
VERTEX
  8
Top
  10
0.1748
  20
0.4307
  42
0
  0
VERTEX
  8
Top
  10
0.2087
  20
0.4646
  42
0
  0
SEQEND
  0
POLYLINE
  8
Top
  6
CONTINUOUS
  66
1
  70
0
  40
0.0059
  41
0.0059
  0
VERTEX
  8
Top
  10
0.1719
  20
0.4307
  42
1
  0
VERTEX
  8
Top
  10
0.1778
  20
0.4307
  42
1
  0
VERTEX
  8
Top
  10
0.1719
  20
0.4307
  42
1
  0
SEQEND
  0
POLYLINE
  8
Top
  6
CONTINUOUS
  66
1
  70
0
  40
0.0059
  41
0.0059
  0
VERTEX
  8
Top
  10
0.2057
  20
0.4646
  42
1
  0
VERTEX
  8
Top
  10
0.2116
  20
0.4646
  42
1
  0
VERTEX
  8
Top
  10
0.2057
  20
0.4646
  42
1
  0
SEQEND
  0
POLYLINE
  8
Top
  6
CONTINUOUS
  66
1
  70
0
  40
0.0118
  41
0.0118
  0
VERTEX
  8
Top
  10
0.6299
  20
0.1654
  42
0
  0
VERTEX
  8
Top
  10
0.6299
  20
0.2638
  42
0
  0
SEQEND
  0
POLYLINE
  8
Top
  6
CONTINUOUS
  66
1
  70
0
  40
0.0059
  41
0.0059
  0
VERTEX
  8
Top
  10
0.627
  20
0.1654
  42
1
  0
VERTEX
  8
Top
  10
0.6329
  20
0.1654
  42
1
  0
VERTEX
  8
Top
  10
0.627
  20
0.1654
  42
1
  0
SEQEND
  0
POLYLINE
  8
Top
  6
CONTINUOUS
  66
1
  70
0
  40
0.0059
  41
0.0059
  0
VERTEX
  8
Top
  10
0.627
  20
0.2638
  42
1
  0
VERTEX
  8
Top
  10
0.6329
  20
0.2638
  42
1
  0
VERTEX
  8
Top
  10
0.627
  20
0.2638
  42
1
  0
SEQEND
  0
POLYLINE
  8
Top
  6
CONTINUOUS
  66
1
  70
0
  40
0.0118
  41
0.0118
  0
VERTEX
  8
Top
  10
0.6299
  20
0.2638
  42
0
  0
VERTEX
  8
Top
  10
0.626
  20
0.2677
  42
0
  0
SEQEND
  0
POLYLINE
  8
Top
  6
CONTINUOUS
  66
1
  70
0
  40
0.0059
  41
0.0059
  0
VERTEX
  8
Top
  10
0.627
  20
0.2638
  42
1
  0
VERTEX
  8
Top
  10
0.6329
  20
0.2638
  42
1
  0
VERTEX
  8
Top
  10
0.627
  20
0.2638
  42
1
  0
SEQEND
  0
POLYLINE
  8
Top
  6
CONTINUOUS
  66
1
  70
0
  40
0.0059
  41
0.0059
  0
VERTEX
  8
Top
  10
0.623
  20
0.2677
  42
1
  0
VERTEX
  8
Top
  10
0.6289
  20
0.2677
  42
1
  0
VERTEX
  8
Top
  10
0.623
  20
0.2677
  42
1
  0
SEQEND
  0
POLYLINE
  8
Top
  6
CONTINUOUS
  66
1
  70
0
  40
0.0118
  41
0.0118
  0
VERTEX
  8
Top
  10
0.626
  20
0.2677
  42
0
  0
VERTEX
  8
Top
  10
0.626
  20
0.2913
  42
0
  0
SEQEND
  0
POLYLINE
  8
Top
  6
CONTINUOUS
  66
1
  70
0
  40
0.0059
  41
0.0059
  0
VERTEX
  8
Top
  10
0.623
  20
0.2677
  42
1
  0
VERTEX
  8
Top
  10
0.6289
  20
0.2677
  42
1
  0
VERTEX
  8
Top
  10
0.623
  20
0.2677
  42
1
  0
SEQEND
  0
POLYLINE
  8
Top
  6
CONTINUOUS
  66
1
  70
0
  40
0.0059
  41
0.0059
  0
VERTEX
  8
Top
  10
0.623
  20
0.2913
  42
1
  0
VERTEX
  8
Top
  10
0.6289
  20
0.2913
  42
1
  0
VERTEX
  8
Top
  10
0.623
  20
0.2913
  42
1
  0
SEQEND
  0
POLYLINE
  8
Top
  6
CONTINUOUS
  66
1
  70
0
  40
0.0118
  41
0.0118
  0
VERTEX
  8
Top
  10
0.626
  20
0.2913
  42
0
  0
VERTEX
  8
Top
  10
0.5945
  20
0.3228
  42
0
  0
SEQEND
  0
POLYLINE
  8
Top
  6
CONTINUOUS
  66
1
  70
0
  40
0.0059
  41
0.0059
  0
VERTEX
  8
Top
  10
0.623
  20
0.2913
  42
1
  0
VERTEX
  8
Top
  10
0.6289
  20
0.2913
  42
1
  0
VERTEX
  8
Top
  10
0.623
  20
0.2913
  42
1
  0
SEQEND
  0
POLYLINE
  8
Top
  6
CONTINUOUS
  66
1
  70
0
  40
0.0059
  41
0.0059
  0
VERTEX
  8
Top
  10
0.5915
  20
0.3228
  42
1
  0
VERTEX
  8
Top
  10
0.5974
  20
0.3228
  42
1
  0
VERTEX
  8
Top
  10
0.5915
  20
0.3228
  42
1
  0
SEQEND
  0
POLYLINE
  8
Top
  6
CONTINUOUS
  66
1
  70
0
  40
0.0118
  41
0.0118
  0
VERTEX
  8
Top
  10
0.5945
  20
0.3228
  42
0
  0
VERTEX
  8
Top
  10
0.5591
  20
0.3228
  42
0
  0
SEQEND
  0
POLYLINE
  8
Top
  6
CONTINUOUS
  66
1
  70
0
  40
0.0059
  41
0.0059
  0
VERTEX
  8
Top
  10
0.5915
  20
0.3228
  42
1
  0
VERTEX
  8
Top
  10
0.5974
  20
0.3228
  42
1
  0
VERTEX
  8
Top
  10
0.5915
  20
0.3228
  42
1
  0
SEQEND
  0
POLYLINE
  8
Top
  6
CONTINUOUS
  66
1
  70
0
  40
0.0059
  41
0.0059
  0
VERTEX
  8
Top
  10
0.5561
  20
0.3228
  42
1
  0
VERTEX
  8
Top
  10
0.562
  20
0.3228
  42
1
  0
VERTEX
  8
Top
  10
0.5561
  20
0.3228
  42
1
  0
SEQEND
  0
POLYLINE
  8
Top
  6
CONTINUOUS
  66
1
  70
0
  40
0.0118
  41
0.0118
  0
VERTEX
  8
Top
  10
0.5591
  20
0.3228
  42
0
  0
VERTEX
  8
Top
  10
0.5512
  20
0.315
  42
0
  0
SEQEND
  0
POLYLINE
  8
Top
  6
CONTINUOUS
  66
1
  70
0
  40
0.0059
  41
0.0059
  0
VERTEX
  8
Top
  10
0.5561
  20
0.3228
  42
1
  0
VERTEX
  8
Top
  10
0.562
  20
0.3228
  42
1
  0
VERTEX
  8
Top
  10
0.5561
  20
0.3228
  42
1
  0
SEQEND
  0
POLYLINE
  8
Top
  6
CONTINUOUS
  66
1
  70
0
  40
0.0059
  41
0.0059
  0
VERTEX
  8
Top
  10
0.5482
  20
0.315
  42
1
  0
VERTEX
  8
Top
  10
0.5541
  20
0.315
  42
1
  0
VERTEX
  8
Top
  10
0.5482
  20
0.315
  42
1
  0
SEQEND
  0
POLYLINE
  8
Top
  6
CONTINUOUS
  66
1
  70
0
  40
0.0118
  41
0.0118
  0
VERTEX
  8
Top
  10
0.5512
  20
0.315
  42
0
  0
VERTEX
  8
Top
  10
0.5512
  20
0.2677
  42
0
  0
SEQEND
  0
POLYLINE
  8
Top
  6
CONTINUOUS
  66
1
  70
0
  40
0.0059
  41
0.0059
  0
VERTEX
  8
Top
  10
0.5482
  20
0.315
  42
1
  0
VERTEX
  8
Top
  10
0.5541
  20
0.315
  42
1
  0
VERTEX
  8
Top
  10
0.5482
  20
0.315
  42
1
  0
SEQEND
  0
POLYLINE
  8
Top
  6
CONTINUOUS
  66
1
  70
0
  40
0.0059
  41
0.0059
  0
VERTEX
  8
Top
  10
0.5482
  20
0.2677
  42
1
  0
VERTEX
  8
Top
  10
0.5541
  20
0.2677
  42
1
  0
VERTEX
  8
Top
  10
0.5482
  20
0.2677
  42
1
  0
SEQEND
  0
POLYLINE
  8
Top
  6
CONTINUOUS
  66
1
  70
0
  40
0.0118
  41
0.0118
  0
VERTEX
  8
Top
  10
0.563
  20
0.0866
  42
0
  0
VERTEX
  8
Top
  10
0.563
  20
0.0984
  42
0
  0
SEQEND
  0
POLYLINE
  8
Top
  6
CONTINUOUS
  66
1
  70
0
  40
0.0059
  41
0.0059
  0
VERTEX
  8
Top
  10
0.56
  20
0.0866
  42
1
  0
VERTEX
  8
Top
  10
0.5659
  20
0.0866
  42
1
  0
VERTEX
  8
Top
  10
0.56
  20
0.0866
  42
1
  0
SEQEND
  0
POLYLINE
  8
Top
  6
CONTINUOUS
  66
1
  70
0
  40
0.0059
  41
0.0059
  0
VERTEX
  8
Top
  10
0.56
  20
0.0984
  42
1
  0
VERTEX
  8
Top
  10
0.5659
  20
0.0984
  42
1
  0
VERTEX
  8
Top
  10
0.56
  20
0.0984
  42
1
  0
SEQEND
  0
POLYLINE
  8
Top
  6
CONTINUOUS
  66
1
  70
0
  40
0.0118
  41
0.0118
  0
VERTEX
  8
Top
  10
0.563
  20
0.0984
  42
0
  0
VERTEX
  8
Top
  10
0.6299
  20
0.1654
  42
0
  0
SEQEND
  0
POLYLINE
  8
Top
  6
CONTINUOUS
  66
1
  70
0
  40
0.0059
  41
0.0059
  0
VERTEX
  8
Top
  10
0.56
  20
0.0984
  42
1
  0
VERTEX
  8
Top
  10
0.5659
  20
0.0984
  42
1
  0
VERTEX
  8
Top
  10
0.56
  20
0.0984
  42
1
  0
SEQEND
  0
POLYLINE
  8
Top
  6
CONTINUOUS
  66
1
  70
0
  40
0.0059
  41
0.0059
  0
VERTEX
  8
Top
  10
0.627
  20
0.1654
  42
1
  0
VERTEX
  8
Top
  10
0.6329
  20
0.1654
  42
1
  0
VERTEX
  8
Top
  10
0.627
  20
0.1654
  42
1
  0
SEQEND
  0
POLYLINE
  8
Top
  6
CONTINUOUS
  66
1
  70
0
  40
0.0118
  41
0.0118
  0
VERTEX
  8
Top
  10
0.563
  20
0.0866
  42
0
  0
VERTEX
  8
Top
  10
0.4685
  20
0.0866
  42
0
  0
SEQEND
  0
POLYLINE
  8
Top
  6
CONTINUOUS
  66
1
  70
0
  40
0.0059
  41
0.0059
  0
VERTEX
  8
Top
  10
0.56
  20
0.0866
  42
1
  0
VERTEX
  8
Top
  10
0.5659
  20
0.0866
  42
1
  0
VERTEX
  8
Top
  10
0.56
  20
0.0866
  42
1
  0
SEQEND
  0
POLYLINE
  8
Top
  6
CONTINUOUS
  66
1
  70
0
  40
0.0059
  41
0.0059
  0
VERTEX
  8
Top
  10
0.4656
  20
0.0866
  42
1
  0
VERTEX
  8
Top
  10
0.4715
  20
0.0866
  42
1
  0
VERTEX
  8
Top
  10
0.4656
  20
0.0866
  42
1
  0
SEQEND
  0
POLYLINE
  8
Top
  6
CONTINUOUS
  66
1
  70
0
  40
0.0118
  41
0.0118
  0
VERTEX
  8
Top
  10
0.4685
  20
0.0866
  42
0
  0
VERTEX
  8
Top
  10
0.4685
  20
0.0866
  42
0
  0
SEQEND
  0
POLYLINE
  8
Top
  6
CONTINUOUS
  66
1
  70
0
  40
0.0059
  41
0.0059
  0
VERTEX
  8
Top
  10
0.4656
  20
0.0866
  42
1
  0
VERTEX
  8
Top
  10
0.4715
  20
0.0866
  42
1
  0
VERTEX
  8
Top
  10
0.4656
  20
0.0866
  42
1
  0
SEQEND
  0
SOLID
  8
Bottom
  10
0.0256
  20
0.5642
  11
0.0925
  21
0.5642
  12
0.0256
  22
0.4972
  13
0.0925
  23
0.4972
  0
POLYLINE
  8
Bottom
  6
CONTINUOUS
  66
1
  70
0
  40
0.0335
  41
0.0335
  0
VERTEX
  8
Bottom
  10
0.0758
  20
0.4307
  42
1
  0
VERTEX
  8
Bottom
  10
0.0423
  20
0.4307
  42
1
  0
VERTEX
  8
Bottom
  10
0.0758
  20
0.4307
  42
1
  0
SEQEND
  0
POLYLINE
  8
Bottom
  6
CONTINUOUS
  66
1
  70
0
  40
0.0335
  41
0.0335
  0
VERTEX
  8
Bottom
  10
0.0758
  20
0.3307
  42
1
  0
VERTEX
  8
Bottom
  10
0.0423
  20
0.3307
  42
1
  0
VERTEX
  8
Bottom
  10
0.0758
  20
0.3307
  42
1
  0
SEQEND
  0
POLYLINE
  8
Bottom
  6
CONTINUOUS
  66
1
  70
0
  40
0.0335
  41
0.0335
  0
VERTEX
  8
Bottom
  10
0.0758
  20
0.2307
  42
1
  0
VERTEX
  8
Bottom
  10
0.0423
  20
0.2307
  42
1
  0
VERTEX
  8
Bottom
  10
0.0758
  20
0.2307
  42
1
  0
SEQEND
  0
POLYLINE
  8
Bottom
  6
CONTINUOUS
  66
1
  70
0
  40
0.0335
  41
0.0335
  0
VERTEX
  8
Bottom
  10
0.0758
  20
0.1307
  42
1
  0
VERTEX
  8
Bottom
  10
0.0423
  20
0.1307
  42
1
  0
VERTEX
  8
Bottom
  10
0.0758
  20
0.1307
  42
1
  0
SEQEND
  0
POLYLINE
  8
Bottom
  6
CONTINUOUS
  66
1
  70
0
  40
0.0098
  41
0.0098
  0
VERTEX
  8
Bottom
  10
0.2096
  20
0.5551
  42
1
  0
VERTEX
  8
Bottom
  10
0.1998
  20
0.5551
  42
1
  0
VERTEX
  8
Bottom
  10
0.2096
  20
0.5551
  42
1
  0
SEQEND
  0
POLYLINE
  8
Bottom
  6
CONTINUOUS
  66
1
  70
0
  40
0.0098
  41
0.0098
  0
VERTEX
  8
Bottom
  10
0.6663
  20
0.4567
  42
1
  0
VERTEX
  8
Bottom
  10
0.6565
  20
0.4567
  42
1
  0
VERTEX
  8
Bottom
  10
0.6663
  20
0.4567
  42
1
  0
SEQEND
  0
POLYLINE
  8
Bottom
  6
CONTINUOUS
  66
1
  70
0
  40
0.0098
  41
0.0098
  0
VERTEX
  8
Bottom
  10
0.5128
  20
0.3622
  42
1
  0
VERTEX
  8
Bottom
  10
0.503
  20
0.3622
  42
1
  0
VERTEX
  8
Bottom
  10
0.5128
  20
0.3622
  42
1
  0
SEQEND
  0
POLYLINE
  8
Bottom
  6
CONTINUOUS
  66
1
  70
0
  40
0.0098
  41
0.0098
  0
VERTEX
  8
Bottom
  10
0.4931
  20
0.2402
  42
1
  0
VERTEX
  8
Bottom
  10
0.4833
  20
0.2402
  42
1
  0
VERTEX
  8
Bottom
  10
0.4931
  20
0.2402
  42
1
  0
SEQEND
  0
POLYLINE
  8
Bottom
  6
CONTINUOUS
  66
1
  70
0
  40
0.0098
  41
0.0098
  0
VERTEX
  8
Bottom
  10
0.497
  20
0.4291
  42
1
  0
VERTEX
  8
Bottom
  10
0.4872
  20
0.4291
  42
1
  0
VERTEX
  8
Bottom
  10
0.497
  20
0.4291
  42
1
  0
SEQEND
  0
POLYLINE
  8
Bottom
  6
CONTINUOUS
  66
1
  70
0
  40
0.0098
  41
0.0098
  0
VERTEX
  8
Bottom
  10
0.4734
  20
0.0866
  42
1
  0
VERTEX
  8
Bottom
  10
0.4636
  20
0.0866
  42
1
  0
VERTEX
  8
Bottom
  10
0.4734
  20
0.0866
  42
1
  0
SEQEND
  0
POLYLINE
  8
Bottom
  6
CONTINUOUS
  66
1
  70
0
  40
0.0098
  41
0.0098
  0
VERTEX
  8
Bottom
  10
0.2411
  20
0.1654
  42
1
  0
VERTEX
  8
Bottom
  10
0.2313
  20
0.1654
  42
1
  0
VERTEX
  8
Bottom
  10
0.2411
  20
0.1654
  42
1
  0
SEQEND
  0
POLYLINE
  8
Bottom
  6
CONTINUOUS
  66
1
  70
0
  40
0.0079
  41
0.0079
  0
VERTEX
  8
Bottom
  10
0.5079
  20
0.3622
  42
0
  0
VERTEX
  8
Bottom
  10
0.5669
  20
0.3622
  42
0
  0
SEQEND
  0
POLYLINE
  8
Bottom
  6
CONTINUOUS
  66
1
  70
0
  40
0.0039
  41
0.0039
  0
VERTEX
  8
Bottom
  10
0.5059
  20
0.3622
  42
1
  0
VERTEX
  8
Bottom
  10
0.5098
  20
0.3622
  42
1
  0
VERTEX
  8
Bottom
  10
0.5059
  20
0.3622
  42
1
  0
SEQEND
  0
POLYLINE
  8
Bottom
  6
CONTINUOUS
  66
1
  70
0
  40
0.0039
  41
0.0039
  0
VERTEX
  8
Bottom
  10
0.565
  20
0.3622
  42
1
  0
VERTEX
  8
Bottom
  10
0.5689
  20
0.3622
  42
1
  0
VERTEX
  8
Bottom
  10
0.565
  20
0.3622
  42
1
  0
SEQEND
  0
POLYLINE
  8
Bottom
  6
CONTINUOUS
  66
1
  70
0
  40
0.0079
  41
0.0079
  0
VERTEX
  8
Bottom
  10
0.5669
  20
0.3622
  42
0
  0
VERTEX
  8
Bottom
  10
0.6614
  20
0.4567
  42
0
  0
SEQEND
  0
POLYLINE
  8
Bottom
  6
CONTINUOUS
  66
1
  70
0
  40
0.0039
  41
0.0039
  0
VERTEX
  8
Bottom
  10
0.565
  20
0.3622
  42
1
  0
VERTEX
  8
Bottom
  10
0.5689
  20
0.3622
  42
1
  0
VERTEX
  8
Bottom
  10
0.565
  20
0.3622
  42
1
  0
SEQEND
  0
POLYLINE
  8
Bottom
  6
CONTINUOUS
  66
1
  70
0
  40
0.0039
  41
0.0039
  0
VERTEX
  8
Bottom
  10
0.6594
  20
0.4567
  42
1
  0
VERTEX
  8
Bottom
  10
0.6634
  20
0.4567
  42
1
  0
VERTEX
  8
Bottom
  10
0.6594
  20
0.4567
  42
1
  0
SEQEND
  0
POLYLINE
  8
Bottom
  6
CONTINUOUS
  66
1
  70
0
  40
0.0118
  41
0.0118
  0
VERTEX
  8
Bottom
  10
0.2047
  20
0.5551
  42
0
  0
VERTEX
  8
Bottom
  10
0.2047
  20
0.4764
  42
0
  0
SEQEND
  0
POLYLINE
  8
Bottom
  6
CONTINUOUS
  66
1
  70
0
  40
0.0059
  41
0.0059
  0
VERTEX
  8
Bottom
  10
0.2018
  20
0.5551
  42
1
  0
VERTEX
  8
Bottom
  10
0.2077
  20
0.5551
  42
1
  0
VERTEX
  8
Bottom
  10
0.2018
  20
0.5551
  42
1
  0
SEQEND
  0
POLYLINE
  8
Bottom
  6
CONTINUOUS
  66
1
  70
0
  40
0.0059
  41
0.0059
  0
VERTEX
  8
Bottom
  10
0.2018
  20
0.4764
  42
1
  0
VERTEX
  8
Bottom
  10
0.2077
  20
0.4764
  42
1
  0
VERTEX
  8
Bottom
  10
0.2018
  20
0.4764
  42
1
  0
SEQEND
  0
POLYLINE
  8
Bottom
  6
CONTINUOUS
  66
1
  70
0
  40
0.0118
  41
0.0118
  0
VERTEX
  8
Bottom
  10
0.2047
  20
0.4764
  42
0
  0
VERTEX
  8
Bottom
  10
0.0591
  20
0.3307
  42
0
  0
SEQEND
  0
POLYLINE
  8
Bottom
  6
CONTINUOUS
  66
1
  70
0
  40
0.0059
  41
0.0059
  0
VERTEX
  8
Bottom
  10
0.2018
  20
0.4764
  42
1
  0
VERTEX
  8
Bottom
  10
0.2077
  20
0.4764
  42
1
  0
VERTEX
  8
Bottom
  10
0.2018
  20
0.4764
  42
1
  0
SEQEND
  0
POLYLINE
  8
Bottom
  6
CONTINUOUS
  66
1
  70
0
  40
0.0059
  41
0.0059
  0
VERTEX
  8
Bottom
  10
0.0561
  20
0.3307
  42
1
  0
VERTEX
  8
Bottom
  10
0.062
  20
0.3307
  42
1
  0
VERTEX
  8
Bottom
  10
0.0561
  20
0.3307
  42
1
  0
SEQEND
  0
POLYLINE
  8
Bottom
  6
CONTINUOUS
  66
1
  70
0
  40
0.0118
  41
0.0118
  0
VERTEX
  8
Bottom
  10
0.2362
  20
0.1654
  42
0
  0
VERTEX
  8
Bottom
  10
0.2244
  20
0.1654
  42
0
  0
SEQEND
  0
POLYLINE
  8
Bottom
  6
CONTINUOUS
  66
1
  70
0
  40
0.0059
  41
0.0059
  0
VERTEX
  8
Bottom
  10
0.2333
  20
0.1654
  42
1
  0
VERTEX
  8
Bottom
  10
0.2392
  20
0.1654
  42
1
  0
VERTEX
  8
Bottom
  10
0.2333
  20
0.1654
  42
1
  0
SEQEND
  0
POLYLINE
  8
Bottom
  6
CONTINUOUS
  66
1
  70
0
  40
0.0059
  41
0.0059
  0
VERTEX
  8
Bottom
  10
0.2215
  20
0.1654
  42
1
  0
VERTEX
  8
Bottom
  10
0.2274
  20
0.1654
  42
1
  0
VERTEX
  8
Bottom
  10
0.2215
  20
0.1654
  42
1
  0
SEQEND
  0
POLYLINE
  8
Bottom
  6
CONTINUOUS
  66
1
  70
0
  40
0.0118
  41
0.0118
  0
VERTEX
  8
Bottom
  10
0.2244
  20
0.1654
  42
0
  0
VERTEX
  8
Bottom
  10
0.0591
  20
0.3307
  42
0
  0
SEQEND
  0
POLYLINE
  8
Bottom
  6
CONTINUOUS
  66
1
  70
0
  40
0.0059
  41
0.0059
  0
VERTEX
  8
Bottom
  10
0.2215
  20
0.1654
  42
1
  0
VERTEX
  8
Bottom
  10
0.2274
  20
0.1654
  42
1
  0
VERTEX
  8
Bottom
  10
0.2215
  20
0.1654
  42
1
  0
SEQEND
  0
POLYLINE
  8
Bottom
  6
CONTINUOUS
  66
1
  70
0
  40
0.0059
  41
0.0059
  0
VERTEX
  8
Bottom
  10
0.0561
  20
0.3307
  42
1
  0
VERTEX
  8
Bottom
  10
0.062
  20
0.3307
  42
1
  0
VERTEX
  8
Bottom
  10
0.0561
  20
0.3307
  42
1
  0
SEQEND
  0
POLYLINE
  8
Bottom
  6
CONTINUOUS
  66
1
  70
0
  40
0.0118
  41
0.0118
  0
VERTEX
  8
Bottom
  10
0.4882
  20
0.2402
  42
0
  0
VERTEX
  8
Bottom
  10
0.4882
  20
0.3268
  42
0
  0
SEQEND
  0
POLYLINE
  8
Bottom
  6
CONTINUOUS
  66
1
  70
0
  40
0.0059
  41
0.0059
  0
VERTEX
  8
Bottom
  10
0.4852
  20
0.2402
  42
1
  0
VERTEX
  8
Bottom
  10
0.4911
  20
0.2402
  42
1
  0
VERTEX
  8
Bottom
  10
0.4852
  20
0.2402
  42
1
  0
SEQEND
  0
POLYLINE
  8
Bottom
  6
CONTINUOUS
  66
1
  70
0
  40
0.0059
  41
0.0059
  0
VERTEX
  8
Bottom
  10
0.4852
  20
0.3268
  42
1
  0
VERTEX
  8
Bottom
  10
0.4911
  20
0.3268
  42
1
  0
VERTEX
  8
Bottom
  10
0.4852
  20
0.3268
  42
1
  0
SEQEND
  0
POLYLINE
  8
Bottom
  6
CONTINUOUS
  66
1
  70
0
  40
0.0118
  41
0.0118
  0
VERTEX
  8
Bottom
  10
0.4882
  20
0.3268
  42
0
  0
VERTEX
  8
Bottom
  10
0.4606
  20
0.3543
  42
0
  0
SEQEND
  0
POLYLINE
  8
Bottom
  6
CONTINUOUS
  66
1
  70
0
  40
0.0059
  41
0.0059
  0
VERTEX
  8
Bottom
  10
0.4852
  20
0.3268
  42
1
  0
VERTEX
  8
Bottom
  10
0.4911
  20
0.3268
  42
1
  0
VERTEX
  8
Bottom
  10
0.4852
  20
0.3268
  42
1
  0
SEQEND
  0
POLYLINE
  8
Bottom
  6
CONTINUOUS
  66
1
  70
0
  40
0.0059
  41
0.0059
  0
VERTEX
  8
Bottom
  10
0.4577
  20
0.3543
  42
1
  0
VERTEX
  8
Bottom
  10
0.4636
  20
0.3543
  42
1
  0
VERTEX
  8
Bottom
  10
0.4577
  20
0.3543
  42
1
  0
SEQEND
  0
POLYLINE
  8
Bottom
  6
CONTINUOUS
  66
1
  70
0
  40
0.0118
  41
0.0118
  0
VERTEX
  8
Bottom
  10
0.4606
  20
0.3543
  42
0
  0
VERTEX
  8
Bottom
  10
0.4606
  20
0.3976
  42
0
  0
SEQEND
  0
POLYLINE
  8
Bottom
  6
CONTINUOUS
  66
1
  70
0
  40
0.0059
  41
0.0059
  0
VERTEX
  8
Bottom
  10
0.4577
  20
0.3543
  42
1
  0
VERTEX
  8
Bottom
  10
0.4636
  20
0.3543
  42
1
  0
VERTEX
  8
Bottom
  10
0.4577
  20
0.3543
  42
1
  0
SEQEND
  0
POLYLINE
  8
Bottom
  6
CONTINUOUS
  66
1
  70
0
  40
0.0059
  41
0.0059
  0
VERTEX
  8
Bottom
  10
0.4577
  20
0.3976
  42
1
  0
VERTEX
  8
Bottom
  10
0.4636
  20
0.3976
  42
1
  0
VERTEX
  8
Bottom
  10
0.4577
  20
0.3976
  42
1
  0
SEQEND
  0
POLYLINE
  8
Bottom
  6
CONTINUOUS
  66
1
  70
0
  40
0.0118
  41
0.0118
  0
VERTEX
  8
Bottom
  10
0.4606
  20
0.3976
  42
0
  0
VERTEX
  8
Bottom
  10
0.4921
  20
0.4291
  42
0
  0
SEQEND
  0
POLYLINE
  8
Bottom
  6
CONTINUOUS
  66
1
  70
0
  40
0.0059
  41
0.0059
  0
VERTEX
  8
Bottom
  10
0.4577
  20
0.3976
  42
1
  0
VERTEX
  8
Bottom
  10
0.4636
  20
0.3976
  42
1
  0
VERTEX
  8
Bottom
  10
0.4577
  20
0.3976
  42
1
  0
SEQEND
  0
POLYLINE
  8
Bottom
  6
CONTINUOUS
  66
1
  70
0
  40
0.0059
  41
0.0059
  0
VERTEX
  8
Bottom
  10
0.4892
  20
0.4291
  42
1
  0
VERTEX
  8
Bottom
  10
0.4951
  20
0.4291
  42
1
  0
VERTEX
  8
Bottom
  10
0.4892
  20
0.4291
  42
1
  0
SEQEND
  0
POLYLINE
  8
Bottom
  6
CONTINUOUS
  66
1
  70
0
  40
0.0118
  41
0.0118
  0
VERTEX
  8
Bottom
  10
0.4685
  20
0.0866
  42
0
  0
VERTEX
  8
Bottom
  10
0.4685
  20
0.1929
  42
0
  0
SEQEND
  0
POLYLINE
  8
Bottom
  6
CONTINUOUS
  66
1
  70
0
  40
0.0059
  41
0.0059
  0
VERTEX
  8
Bottom
  10
0.4656
  20
0.0866
  42
1
  0
VERTEX
  8
Bottom
  10
0.4715
  20
0.0866
  42
1
  0
VERTEX
  8
Bottom
  10
0.4656
  20
0.0866
  42
1
  0
SEQEND
  0
POLYLINE
  8
Bottom
  6
CONTINUOUS
  66
1
  70
0
  40
0.0059
  41
0.0059
  0
VERTEX
  8
Bottom
  10
0.4656
  20
0.1929
  42
1
  0
VERTEX
  8
Bottom
  10
0.4715
  20
0.1929
  42
1
  0
VERTEX
  8
Bottom
  10
0.4656
  20
0.1929
  42
1
  0
SEQEND
  0
POLYLINE
  8
Bottom
  6
CONTINUOUS
  66
1
  70
0
  40
0.0118
  41
0.0118
  0
VERTEX
  8
Bottom
  10
0.4685
  20
0.1929
  42
0
  0
VERTEX
  8
Bottom
  10
0.3346
  20
0.3268
  42
0
  0
SEQEND
  0
POLYLINE
  8
Bottom
  6
CONTINUOUS
  66
1
  70
0
  40
0.0059
  41
0.0059
  0
VERTEX
  8
Bottom
  10
0.4656
  20
0.1929
  42
1
  0
VERTEX
  8
Bottom
  10
0.4715
  20
0.1929
  42
1
  0
VERTEX
  8
Bottom
  10
0.4656
  20
0.1929
  42
1
  0
SEQEND
  0
POLYLINE
  8
Bottom
  6
CONTINUOUS
  66
1
  70
0
  40
0.0059
  41
0.0059
  0
VERTEX
  8
Bottom
  10
0.3317
  20
0.3268
  42
1
  0
VERTEX
  8
Bottom
  10
0.3376
  20
0.3268
  42
1
  0
VERTEX
  8
Bottom
  10
0.3317
  20
0.3268
  42
1
  0
SEQEND
  0
POLYLINE
  8
Bottom
  6
CONTINUOUS
  66
1
  70
0
  40
0.0118
  41
0.0118
  0
VERTEX
  8
Bottom
  10
0.3346
  20
0.3268
  42
0
  0
VERTEX
  8
Bottom
  10
0.3346
  20
0.4921
  42
0
  0
SEQEND
  0
POLYLINE
  8
Bottom
  6
CONTINUOUS
  66
1
  70
0
  40
0.0059
  41
0.0059
  0
VERTEX
  8
Bottom
  10
0.3317
  20
0.3268
  42
1
  0
VERTEX
  8
Bottom
  10
0.3376
  20
0.3268
  42
1
  0
VERTEX
  8
Bottom
  10
0.3317
  20
0.3268
  42
1
  0
SEQEND
  0
POLYLINE
  8
Bottom
  6
CONTINUOUS
  66
1
  70
0
  40
0.0059
  41
0.0059
  0
VERTEX
  8
Bottom
  10
0.3317
  20
0.4921
  42
1
  0
VERTEX
  8
Bottom
  10
0.3376
  20
0.4921
  42
1
  0
VERTEX
  8
Bottom
  10
0.3317
  20
0.4921
  42
1
  0
SEQEND
  0
POLYLINE
  8
Bottom
  6
CONTINUOUS
  66
1
  70
0
  40
0.0118
  41
0.0118
  0
VERTEX
  8
Bottom
  10
0.3346
  20
0.4921
  42
0
  0
VERTEX
  8
Bottom
  10
0.2244
  20
0.6024
  42
0
  0
SEQEND
  0
POLYLINE
  8
Bottom
  6
CONTINUOUS
  66
1
  70
0
  40
0.0059
  41
0.0059
  0
VERTEX
  8
Bottom
  10
0.3317
  20
0.4921
  42
1
  0
VERTEX
  8
Bottom
  10
0.3376
  20
0.4921
  42
1
  0
VERTEX
  8
Bottom
  10
0.3317
  20
0.4921
  42
1
  0
SEQEND
  0
POLYLINE
  8
Bottom
  6
CONTINUOUS
  66
1
  70
0
  40
0.0059
  41
0.0059
  0
VERTEX
  8
Bottom
  10
0.2215
  20
0.6024
  42
1
  0
VERTEX
  8
Bottom
  10
0.2274
  20
0.6024
  42
1
  0
VERTEX
  8
Bottom
  10
0.2215
  20
0.6024
  42
1
  0
SEQEND
  0
POLYLINE
  8
Bottom
  6
CONTINUOUS
  66
1
  70
0
  40
0.0118
  41
0.0118
  0
VERTEX
  8
Bottom
  10
0.2244
  20
0.6024
  42
0
  0
VERTEX
  8
Bottom
  10
0.1307
  20
0.6024
  42
0
  0
SEQEND
  0
POLYLINE
  8
Bottom
  6
CONTINUOUS
  66
1
  70
0
  40
0.0059
  41
0.0059
  0
VERTEX
  8
Bottom
  10
0.2215
  20
0.6024
  42
1
  0
VERTEX
  8
Bottom
  10
0.2274
  20
0.6024
  42
1
  0
VERTEX
  8
Bottom
  10
0.2215
  20
0.6024
  42
1
  0
SEQEND
  0
POLYLINE
  8
Bottom
  6
CONTINUOUS
  66
1
  70
0
  40
0.0059
  41
0.0059
  0
VERTEX
  8
Bottom
  10
0.1278
  20
0.6024
  42
1
  0
VERTEX
  8
Bottom
  10
0.1337
  20
0.6024
  42
1
  0
VERTEX
  8
Bottom
  10
0.1278
  20
0.6024
  42
1
  0
SEQEND
  0
POLYLINE
  8
Bottom
  6
CONTINUOUS
  66
1
  70
0
  40
0.0118
  41
0.0118
  0
VERTEX
  8
Bottom
  10
0.1307
  20
0.6024
  42
0
  0
VERTEX
  8
Bottom
  10
0.0591
  20
0.5307
  42
0
  0
SEQEND
  0
POLYLINE
  8
Bottom
  6
CONTINUOUS
  66
1
  70
0
  40
0.0059
  41
0.0059
  0
VERTEX
  8
Bottom
  10
0.1278
  20
0.6024
  42
1
  0
VERTEX
  8
Bottom
  10
0.1337
  20
0.6024
  42
1
  0
VERTEX
  8
Bottom
  10
0.1278
  20
0.6024
  42
1
  0
SEQEND
  0
POLYLINE
  8
Bottom
  6
CONTINUOUS
  66
1
  70
0
  40
0.0059
  41
0.0059
  0
VERTEX
  8
Bottom
  10
0.0561
  20
0.5307
  42
1
  0
VERTEX
  8
Bottom
  10
0.062
  20
0.5307
  42
1
  0
VERTEX
  8
Bottom
  10
0.0561
  20
0.5307
  42
1
  0
SEQEND
  0
CIRCLE
  8
Drill_Top
  10
0.0591
  20
0.5307
  40
0.0217
  0
CIRCLE
  8
Drill_Top
  10
0.0591
  20
0.4307
  40
0.0217
  0
CIRCLE
  8
Drill_Top
  10
0.0591
  20
0.3307
  40
0.0217
  0
CIRCLE
  8
Drill_Top
  10
0.0591
  20
0.2307
  40
0.0217
  0
CIRCLE
  8
Drill_Top
  10
0.0591
  20
0.1307
  40
0.0217
  0
CIRCLE
  8
Drill_Top
  10
0.2047
  20
0.5551
  40
0.0059
  0
CIRCLE
  8
Drill_Top
  10
0.6614
  20
0.4567
  40
0.0059
  0
CIRCLE
  8
Drill_Top
  10
0.5079
  20
0.3622
  40
0.0059
  0
CIRCLE
  8
Drill_Top
  10
0.4882
  20
0.2402
  40
0.0059
  0
CIRCLE
  8
Drill_Top
  10
0.4921
  20
0.4291
  40
0.0059
  0
CIRCLE
  8
Drill_Top
  10
0.4685
  20
0.0866
  40
0.0059
  0
CIRCLE
  8
Drill_Top
  10
0.2362
  20
0.1654
  40
0.0059
  0
CIRCLE
  8
Drill_Bottom
  10
0.0591
  20
0.5307
  40
0.0217
  0
CIRCLE
  8
Drill_Bottom
  10
0.0591
  20
0.4307
  40
0.0217
  0
CIRCLE
  8
Drill_Bottom
  10
0.0591
  20
0.3307
  40
0.0217
  0
CIRCLE
  8
Drill_Bottom
  10
0.0591
  20
0.2307
  40
0.0217
  0
CIRCLE
  8
Drill_Bottom
  10
0.0591
  20
0.1307
  40
0.0217
  0
CIRCLE
  8
Drill_Bottom
  10
0.2047
  20
0.5551
  40
0.0059
  0
CIRCLE
  8
Drill_Bottom
  10
0.6614
  20
0.4567
  40
0.0059
  0
CIRCLE
  8
Drill_Bottom
  10
0.5079
  20
0.3622
  40
0.0059
  0
CIRCLE
  8
Drill_Bottom
  10
0.4882
  20
0.2402
  40
0.0059
  0
CIRCLE
  8
Drill_Bottom
  10
0.4921
  20
0.4291
  40
0.0059
  0
CIRCLE
  8
Drill_Bottom
  10
0.4685
  20
0.0866
  40
0.0059
  0
CIRCLE
  8
Drill_Bottom
  10
0.2362
  20
0.1654
  40
0.0059
  0
SOLID
  8
Bottom_Mask
  10
0.0217
  20
0.5681
  11
0.0965
  21
0.5681
  12
0.0217
  22
0.4933
  13
0.0965
  23
0.4933
  0
POLYLINE
  8
Bottom_Mask
  6
CONTINUOUS
  66
1
  70
0
  40
0.0374
  41
0.0374
  0
VERTEX
  8
Bottom_Mask
  10
0.0778
  20
0.4307
  42
1
  0
VERTEX
  8
Bottom_Mask
  10
0.0404
  20
0.4307
  42
1
  0
VERTEX
  8
Bottom_Mask
  10
0.0778
  20
0.4307
  42
1
  0
SEQEND
  0
POLYLINE
  8
Bottom_Mask
  6
CONTINUOUS
  66
1
  70
0
  40
0.0374
  41
0.0374
  0
VERTEX
  8
Bottom_Mask
  10
0.0404
  20
0.4307
  42
1
  0
VERTEX
  8
Bottom_Mask
  10
0.0778
  20
0.4307
  42
1
  0
VERTEX
  8
Bottom_Mask
  10
0.0404
  20
0.4307
  42
1
  0
SEQEND
  0
POLYLINE
  8
Bottom_Mask
  6
CONTINUOUS
  66
1
  70
0
  40
0.0374
  41
0.0374
  0
VERTEX
  8
Bottom_Mask
  10
0.0778
  20
0.3307
  42
1
  0
VERTEX
  8
Bottom_Mask
  10
0.0404
  20
0.3307
  42
1
  0
VERTEX
  8
Bottom_Mask
  10
0.0778
  20
0.3307
  42
1
  0
SEQEND
  0
POLYLINE
  8
Bottom_Mask
  6
CONTINUOUS
  66
1
  70
0
  40
0.0374
  41
0.0374
  0
VERTEX
  8
Bottom_Mask
  10
0.0404
  20
0.3307
  42
1
  0
VERTEX
  8
Bottom_Mask
  10
0.0778
  20
0.3307
  42
1
  0
VERTEX
  8
Bottom_Mask
  10
0.0404
  20
0.3307
  42
1
  0
SEQEND
  0
POLYLINE
  8
Bottom_Mask
  6
CONTINUOUS
  66
1
  70
0
  40
0.0374
  41
0.0374
  0
VERTEX
  8
Bottom_Mask
  10
0.0778
  20
0.2307
  42
1
  0
VERTEX
  8
Bottom_Mask
  10
0.0404
  20
0.2307
  42
1
  0
VERTEX
  8
Bottom_Mask
  10
0.0778
  20
0.2307
  42
1
  0
SEQEND
  0
POLYLINE
  8
Bottom_Mask
  6
CONTINUOUS
  66
1
  70
0
  40
0.0374
  41
0.0374
  0
VERTEX
  8
Bottom_Mask
  10
0.0404
  20
0.2307
  42
1
  0
VERTEX
  8
Bottom_Mask
  10
0.0778
  20
0.2307
  42
1
  0
VERTEX
  8
Bottom_Mask
  10
0.0404
  20
0.2307
  42
1
  0
SEQEND
  0
POLYLINE
  8
Bottom_Mask
  6
CONTINUOUS
  66
1
  70
0
  40
0.0374
  41
0.0374
  0
VERTEX
  8
Bottom_Mask
  10
0.0778
  20
0.1307
  42
1
  0
VERTEX
  8
Bottom_Mask
  10
0.0404
  20
0.1307
  42
1
  0
VERTEX
  8
Bottom_Mask
  10
0.0778
  20
0.1307
  42
1
  0
SEQEND
  0
POLYLINE
  8
Bottom_Mask
  6
CONTINUOUS
  66
1
  70
0
  40
0.0374
  41
0.0374
  0
VERTEX
  8
Bottom_Mask
  10
0.0404
  20
0.1307
  42
1
  0
VERTEX
  8
Bottom_Mask
  10
0.0778
  20
0.1307
  42
1
  0
VERTEX
  8
Bottom_Mask
  10
0.0404
  20
0.1307
  42
1
  0
SEQEND
  0
POLYLINE
  8
Bottom_Silk
  6
CONTINUOUS
  66
1
  70
0
  40
0.0062
  41
0.0062
  0
VERTEX
  8
Bottom_Silk
  10
0.1564
  20
0.5491
  42
0
  0
VERTEX
  8
Bottom_Silk
  10
0.1755
  20
0.5491
  42
0
  0
VERTEX
  8
Bottom_Silk
  10
0.1774
  20
0.5319
  42
0
  0
VERTEX
  8
Bottom_Silk
  10
0.1755
  20
0.5338
  42
0
  0
VERTEX
  8
Bottom_Silk
  10
0.1698
  20
0.5358
  42
0
  0
VERTEX
  8
Bottom_Silk
  10
0.1641
  20
0.5358
  42
0
  0
VERTEX
  8
Bottom_Silk
  10
0.1583
  20
0.5338
  42
0
  0
VERTEX
  8
Bottom_Silk
  10
0.1545
  20
0.53
  42
0
  0
VERTEX
  8
Bottom_Silk
  10
0.1526
  20
0.5243
  42
0
  0
VERTEX
  8
Bottom_Silk
  10
0.1526
  20
0.5205
  42
0
  0
VERTEX
  8
Bottom_Silk
  10
0.1545
  20
0.5147
  42
0
  0
VERTEX
  8
Bottom_Silk
  10
0.1583
  20
0.5109
  42
0
  0
VERTEX
  8
Bottom_Silk
  10
0.1641
  20
0.509
  42
0
  0
VERTEX
  8
Bottom_Silk
  10
0.1698
  20
0.509
  42
0
  0
VERTEX
  8
Bottom_Silk
  10
0.1755
  20
0.5109
  42
0
  0
VERTEX
  8
Bottom_Silk
  10
0.1774
  20
0.5128
  42
0
  0
VERTEX
  8
Bottom_Silk
  10
0.1794
  20
0.5166
  42
0
  0
SEQEND
  0
POLYLINE
  8
Bottom_Silk
  6
CONTINUOUS
  66
1
  70
0
  40
0.0031
  41
0.0031
  0
VERTEX
  8
Bottom_Silk
  10
0.1549
  20
0.5491
  42
1
  0
VERTEX
  8
Bottom_Silk
  10
0.158
  20
0.5491
  42
1
  0
VERTEX
  8
Bottom_Silk
  10
0.1549
  20
0.5491
  42
1
  0
SEQEND
  0
POLYLINE
  8
Bottom_Silk
  6
CONTINUOUS
  66
1
  70
0
  40
0.0031
  41
0.0031
  0
VERTEX
  8
Bottom_Silk
  10
0.1779
  20
0.5166
  42
1
  0
VERTEX
  8
Bottom_Silk
  10
0.1809
  20
0.5166
  42
1
  0
VERTEX
  8
Bottom_Silk
  10
0.1779
  20
0.5166
  42
1
  0
SEQEND
  0
POLYLINE
  8
Bottom_Silk
  6
CONTINUOUS
  66
1
  70
0
  40
0.0062
  41
0.0062
  0
VERTEX
  8
Bottom_Silk
  10
0.1402
  20
0.5492
  42
0
  0
VERTEX
  8
Bottom_Silk
  10
0.125
  20
0.509
  42
0
  0
VERTEX
  8
Bottom_Silk
  10
0.1097
  20
0.5492
  42
0
  0
SEQEND
  0
POLYLINE
  8
Bottom_Silk
  6
CONTINUOUS
  66
1
  70
0
  40
0.0031
  41
0.0031
  0
VERTEX
  8
Bottom_Silk
  10
0.1387
  20
0.5492
  42
1
  0
VERTEX
  8
Bottom_Silk
  10
0.1418
  20
0.5492
  42
1
  0
VERTEX
  8
Bottom_Silk
  10
0.1387
  20
0.5492
  42
1
  0
SEQEND
  0
POLYLINE
  8
Bottom_Silk
  6
CONTINUOUS
  66
1
  70
0
  40
0.0031
  41
0.0031
  0
VERTEX
  8
Bottom_Silk
  10
0.1081
  20
0.5492
  42
1
  0
VERTEX
  8
Bottom_Silk
  10
0.1112
  20
0.5492
  42
1
  0
VERTEX
  8
Bottom_Silk
  10
0.1081
  20
0.5492
  42
1
  0
SEQEND
  0
POLYLINE
  8
Bottom_Silk
  6
CONTINUOUS
  66
1
  70
0
  40
0.0062
  41
0.0062
  0
VERTEX
  8
Bottom_Silk
  10
0.1754
  20
0.453
  42
0
  0
VERTEX
  8
Bottom_Silk
  10
0.1544
  20
0.453
  42
0
  0
VERTEX
  8
Bottom_Silk
  10
0.1659
  20
0.4377
  42
0
  0
VERTEX
  8
Bottom_Silk
  10
0.1601
  20
0.4377
  42
0
  0
VERTEX
  8
Bottom_Silk
  10
0.1563
  20
0.4358
  42
0
  0
VERTEX
  8
Bottom_Silk
  10
0.1544
  20
0.4339
  42
0
  0
VERTEX
  8
Bottom_Silk
  10
0.1525
  20
0.4282
  42
0
  0
VERTEX
  8
Bottom_Silk
  10
0.1525
  20
0.4244
  42
0
  0
VERTEX
  8
Bottom_Silk
  10
0.1544
  20
0.4186
  42
0
  0
VERTEX
  8
Bottom_Silk
  10
0.1582
  20
0.4148
  42
0
  0
VERTEX
  8
Bottom_Silk
  10
0.164
  20
0.4129
  42
0
  0
VERTEX
  8
Bottom_Silk
  10
0.1697
  20
0.4129
  42
0
  0
VERTEX
  8
Bottom_Silk
  10
0.1754
  20
0.4148
  42
0
  0
VERTEX
  8
Bottom_Silk
  10
0.1773
  20
0.4167
  42
0
  0
VERTEX
  8
Bottom_Silk
  10
0.1793
  20
0.4205
  42
0
  0
SEQEND
  0
POLYLINE
  8
Bottom_Silk
  6
CONTINUOUS
  66
1
  70
0
  40
0.0031
  41
0.0031
  0
VERTEX
  8
Bottom_Silk
  10
0.1739
  20
0.453
  42
1
  0
VERTEX
  8
Bottom_Silk
  10
0.177
  20
0.453
  42
1
  0
VERTEX
  8
Bottom_Silk
  10
0.1739
  20
0.453
  42
1
  0
SEQEND
  0
POLYLINE
  8
Bottom_Silk
  6
CONTINUOUS
  66
1
  70
0
  40
0.0031
  41
0.0031
  0
VERTEX
  8
Bottom_Silk
  10
0.1777
  20
0.4205
  42
1
  0
VERTEX
  8
Bottom_Silk
  10
0.1808
  20
0.4205
  42
1
  0
VERTEX
  8
Bottom_Silk
  10
0.1777
  20
0.4205
  42
1
  0
SEQEND
  0
POLYLINE
  8
Bottom_Silk
  6
CONTINUOUS
  66
1
  70
0
  40
0.0062
  41
0.0062
  0
VERTEX
  8
Bottom_Silk
  10
0.1401
  20
0.453
  42
0
  0
VERTEX
  8
Bottom_Silk
  10
0.1248
  20
0.4129
  42
0
  0
VERTEX
  8
Bottom_Silk
  10
0.1095
  20
0.453
  42
0
  0
SEQEND
  0
POLYLINE
  8
Bottom_Silk
  6
CONTINUOUS
  66
1
  70
0
  40
0.0031
  41
0.0031
  0
VERTEX
  8
Bottom_Silk
  10
0.1386
  20
0.453
  42
1
  0
VERTEX
  8
Bottom_Silk
  10
0.1417
  20
0.453
  42
1
  0
VERTEX
  8
Bottom_Silk
  10
0.1386
  20
0.453
  42
1
  0
SEQEND
  0
POLYLINE
  8
Bottom_Silk
  6
CONTINUOUS
  66
1
  70
0
  40
0.0031
  41
0.0031
  0
VERTEX
  8
Bottom_Silk
  10
0.108
  20
0.453
  42
1
  0
VERTEX
  8
Bottom_Silk
  10
0.1111
  20
0.453
  42
1
  0
VERTEX
  8
Bottom_Silk
  10
0.108
  20
0.453
  42
1
  0
SEQEND
  0
POLYLINE
  8
Bottom_Silk
  6
CONTINUOUS
  66
1
  70
0
  40
0.0062
  41
0.0062
  0
VERTEX
  8
Bottom_Silk
  10
0.1889
  20
0.3457
  42
0
  0
VERTEX
  8
Bottom_Silk
  10
0.1908
  20
0.3495
  42
0
  0
VERTEX
  8
Bottom_Silk
  10
0.1946
  20
0.3534
  42
0
  0
VERTEX
  8
Bottom_Silk
  10
0.1984
  20
0.3553
  42
0
  0
VERTEX
  8
Bottom_Silk
  10
0.2061
  20
0.3553
  42
0
  0
VERTEX
  8
Bottom_Silk
  10
0.2099
  20
0.3534
  42
0
  0
VERTEX
  8
Bottom_Silk
  10
0.2137
  20
0.3495
  42
0
  0
VERTEX
  8
Bottom_Silk
  10
0.2157
  20
0.3457
  42
0
  0
VERTEX
  8
Bottom_Silk
  10
0.2176
  20
0.34
  42
0
  0
VERTEX
  8
Bottom_Silk
  10
0.2176
  20
0.3304
  42
0
  0
VERTEX
  8
Bottom_Silk
  10
0.2157
  20
0.3247
  42
0
  0
VERTEX
  8
Bottom_Silk
  10
0.2137
  20
0.3209
  42
0
  0
VERTEX
  8
Bottom_Silk
  10
0.2099
  20
0.317
  42
0
  0
VERTEX
  8
Bottom_Silk
  10
0.2061
  20
0.3151
  42
0
  0
VERTEX
  8
Bottom_Silk
  10
0.1984
  20
0.3151
  42
0
  0
VERTEX
  8
Bottom_Silk
  10
0.1946
  20
0.317
  42
0
  0
VERTEX
  8
Bottom_Silk
  10
0.1908
  20
0.3209
  42
0
  0
VERTEX
  8
Bottom_Silk
  10
0.1889
  20
0.3247
  42
0
  0
VERTEX
  8
Bottom_Silk
  10
0.1889
  20
0.3304
  42
0
  0
VERTEX
  8
Bottom_Silk
  10
0.1984
  20
0.3304
  42
0
  0
SEQEND
  0
POLYLINE
  8
Bottom_Silk
  6
CONTINUOUS
  66
1
  70
0
  40
0.0031
  41
0.0031
  0
VERTEX
  8
Bottom_Silk
  10
0.1874
  20
0.3457
  42
1
  0
VERTEX
  8
Bottom_Silk
  10
0.1904
  20
0.3457
  42
1
  0
VERTEX
  8
Bottom_Silk
  10
0.1874
  20
0.3457
  42
1
  0
SEQEND
  0
POLYLINE
  8
Bottom_Silk
  6
CONTINUOUS
  66
1
  70
0
  40
0.0031
  41
0.0031
  0
VERTEX
  8
Bottom_Silk
  10
0.1969
  20
0.3304
  42
1
  0
VERTEX
  8
Bottom_Silk
  10
0.2
  20
0.3304
  42
1
  0
VERTEX
  8
Bottom_Silk
  10
0.1969
  20
0.3304
  42
1
  0
SEQEND
  0
POLYLINE
  8
Bottom_Silk
  6
CONTINUOUS
  66
1
  70
0
  40
0.0062
  41
0.0062
  0
VERTEX
  8
Bottom_Silk
  10
0.1497
  20
0.3553
  42
0
  0
VERTEX
  8
Bottom_Silk
  10
0.1497
  20
0.3151
  42
0
  0
VERTEX
  8
Bottom_Silk
  10
0.1765
  20
0.3553
  42
0
  0
VERTEX
  8
Bottom_Silk
  10
0.1765
  20
0.3151
  42
0
  0
SEQEND
  0
POLYLINE
  8
Bottom_Silk
  6
CONTINUOUS
  66
1
  70
0
  40
0.0031
  41
0.0031
  0
VERTEX
  8
Bottom_Silk
  10
0.1482
  20
0.3553
  42
1
  0
VERTEX
  8
Bottom_Silk
  10
0.1513
  20
0.3553
  42
1
  0
VERTEX
  8
Bottom_Silk
  10
0.1482
  20
0.3553
  42
1
  0
SEQEND
  0
POLYLINE
  8
Bottom_Silk
  6
CONTINUOUS
  66
1
  70
0
  40
0.0031
  41
0.0031
  0
VERTEX
  8
Bottom_Silk
  10
0.175
  20
0.3151
  42
1
  0
VERTEX
  8
Bottom_Silk
  10
0.1781
  20
0.3151
  42
1
  0
VERTEX
  8
Bottom_Silk
  10
0.175
  20
0.3151
  42
1
  0
SEQEND
  0
POLYLINE
  8
Bottom_Silk
  6
CONTINUOUS
  66
1
  70
0
  40
0.0062
  41
0.0062
  0
VERTEX
  8
Bottom_Silk
  10
0.1374
  20
0.3553
  42
0
  0
VERTEX
  8
Bottom_Silk
  10
0.1374
  20
0.3151
  42
0
  0
VERTEX
  8
Bottom_Silk
  10
0.124
  20
0.3151
  42
0
  0
VERTEX
  8
Bottom_Silk
  10
0.1183
  20
0.317
  42
0
  0
VERTEX
  8
Bottom_Silk
  10
0.1144
  20
0.3209
  42
0
  0
VERTEX
  8
Bottom_Silk
  10
0.1125
  20
0.3247
  42
0
  0
VERTEX
  8
Bottom_Silk
  10
0.1106
  20
0.3304
  42
0
  0
VERTEX
  8
Bottom_Silk
  10
0.1106
  20
0.34
  42
0
  0
VERTEX
  8
Bottom_Silk
  10
0.1125
  20
0.3457
  42
0
  0
VERTEX
  8
Bottom_Silk
  10
0.1144
  20
0.3495
  42
0
  0
VERTEX
  8
Bottom_Silk
  10
0.1183
  20
0.3534
  42
0
  0
VERTEX
  8
Bottom_Silk
  10
0.124
  20
0.3553
  42
0
  0
VERTEX
  8
Bottom_Silk
  10
0.1374
  20
0.3553
  42
0
  0
SEQEND
  0
POLYLINE
  8
Bottom_Silk
  6
CONTINUOUS
  66
1
  70
0
  40
0.0031
  41
0.0031
  0
VERTEX
  8
Bottom_Silk
  10
0.1359
  20
0.3553
  42
1
  0
VERTEX
  8
Bottom_Silk
  10
0.1389
  20
0.3553
  42
1
  0
VERTEX
  8
Bottom_Silk
  10
0.1359
  20
0.3553
  42
1
  0
SEQEND
  0
POLYLINE
  8
Bottom_Silk
  6
CONTINUOUS
  66
1
  70
0
  40
0.0062
  41
0.0062
  0
VERTEX
  8
Bottom_Silk
  10
0.208
  20
0.249
  42
0
  0
VERTEX
  8
Bottom_Silk
  10
0.2118
  20
0.2471
  42
0
  0
VERTEX
  8
Bottom_Silk
  10
0.2156
  20
0.2432
  42
0
  0
VERTEX
  8
Bottom_Silk
  10
0.2176
  20
0.2394
  42
0
  0
VERTEX
  8
Bottom_Silk
  10
0.2195
  20
0.2337
  42
0
  0
VERTEX
  8
Bottom_Silk
  10
0.2195
  20
0.2241
  42
0
  0
VERTEX
  8
Bottom_Silk
  10
0.2176
  20
0.2184
  42
0
  0
VERTEX
  8
Bottom_Silk
  10
0.2156
  20
0.2146
  42
0
  0
VERTEX
  8
Bottom_Silk
  10
0.2118
  20
0.2107
  42
0
  0
VERTEX
  8
Bottom_Silk
  10
0.208
  20
0.2088
  42
0
  0
VERTEX
  8
Bottom_Silk
  10
0.2003
  20
0.2088
  42
0
  0
VERTEX
  8
Bottom_Silk
  10
0.1965
  20
0.2107
  42
0
  0
VERTEX
  8
Bottom_Silk
  10
0.1927
  20
0.2146
  42
0
  0
VERTEX
  8
Bottom_Silk
  10
0.1908
  20
0.2184
  42
0
  0
VERTEX
  8
Bottom_Silk
  10
0.1889
  20
0.2241
  42
0
  0
VERTEX
  8
Bottom_Silk
  10
0.1889
  20
0.2337
  42
0
  0
VERTEX
  8
Bottom_Silk
  10
0.1908
  20
0.2394
  42
0
  0
VERTEX
  8
Bottom_Silk
  10
0.1927
  20
0.2432
  42
0
  0
VERTEX
  8
Bottom_Silk
  10
0.1965
  20
0.2471
  42
0
  0
VERTEX
  8
Bottom_Silk
  10
0.2003
  20
0.249
  42
0
  0
VERTEX
  8
Bottom_Silk
  10
0.208
  20
0.249
  42
0
  0
SEQEND
  0
POLYLINE
  8
Bottom_Silk
  6
CONTINUOUS
  66
1
  70
0
  40
0.0031
  41
0.0031
  0
VERTEX
  8
Bottom_Silk
  10
0.2065
  20
0.249
  42
1
  0
VERTEX
  8
Bottom_Silk
  10
0.2095
  20
0.249
  42
1
  0
VERTEX
  8
Bottom_Silk
  10
0.2065
  20
0.249
  42
1
  0
SEQEND
  0
POLYLINE
  8
Bottom_Silk
  6
CONTINUOUS
  66
1
  70
0
  40
0.0062
  41
0.0062
  0
VERTEX
  8
Bottom_Silk
  10
0.1765
  20
0.249
  42
0
  0
VERTEX
  8
Bottom_Silk
  10
0.1765
  20
0.2203
  42
0
  0
VERTEX
  8
Bottom_Silk
  10
0.1746
  20
0.2146
  42
0
  0
VERTEX
  8
Bottom_Silk
  10
0.1708
  20
0.2107
  42
0
  0
VERTEX
  8
Bottom_Silk
  10
0.165
  20
0.2088
  42
0
  0
VERTEX
  8
Bottom_Silk
  10
0.1612
  20
0.2088
  42
0
  0
VERTEX
  8
Bottom_Silk
  10
0.1555
  20
0.2107
  42
0
  0
VERTEX
  8
Bottom_Silk
  10
0.1517
  20
0.2146
  42
0
  0
VERTEX
  8
Bottom_Silk
  10
0.1497
  20
0.2203
  42
0
  0
VERTEX
  8
Bottom_Silk
  10
0.1497
  20
0.249
  42
0
  0
SEQEND
  0
POLYLINE
  8
Bottom_Silk
  6
CONTINUOUS
  66
1
  70
0
  40
0.0031
  41
0.0031
  0
VERTEX
  8
Bottom_Silk
  10
0.175
  20
0.249
  42
1
  0
VERTEX
  8
Bottom_Silk
  10
0.1781
  20
0.249
  42
1
  0
VERTEX
  8
Bottom_Silk
  10
0.175
  20
0.249
  42
1
  0
SEQEND
  0
POLYLINE
  8
Bottom_Silk
  6
CONTINUOUS
  66
1
  70
0
  40
0.0031
  41
0.0031
  0
VERTEX
  8
Bottom_Silk
  10
0.1482
  20
0.249
  42
1
  0
VERTEX
  8
Bottom_Silk
  10
0.1513
  20
0.249
  42
1
  0
VERTEX
  8
Bottom_Silk
  10
0.1482
  20
0.249
  42
1
  0
SEQEND
  0
POLYLINE
  8
Bottom_Silk
  6
CONTINUOUS
  66
1
  70
0
  40
0.0062
  41
0.0062
  0
VERTEX
  8
Bottom_Silk
  10
0.124
  20
0.249
  42
0
  0
VERTEX
  8
Bottom_Silk
  10
0.124
  20
0.2088
  42
0
  0
SEQEND
  0
POLYLINE
  8
Bottom_Silk
  6
CONTINUOUS
  66
1
  70
0
  40
0.0031
  41
0.0031
  0
VERTEX
  8
Bottom_Silk
  10
0.1225
  20
0.249
  42
1
  0
VERTEX
  8
Bottom_Silk
  10
0.1255
  20
0.249
  42
1
  0
VERTEX
  8
Bottom_Silk
  10
0.1225
  20
0.249
  42
1
  0
SEQEND
  0
POLYLINE
  8
Bottom_Silk
  6
CONTINUOUS
  66
1
  70
0
  40
0.0031
  41
0.0031
  0
VERTEX
  8
Bottom_Silk
  10
0.1225
  20
0.2088
  42
1
  0
VERTEX
  8
Bottom_Silk
  10
0.1255
  20
0.2088
  42
1
  0
VERTEX
  8
Bottom_Silk
  10
0.1225
  20
0.2088
  42
1
  0
SEQEND
  0
POLYLINE
  8
Bottom_Silk
  6
CONTINUOUS
  66
1
  70
0
  40
0.0062
  41
0.0062
  0
VERTEX
  8
Bottom_Silk
  10
0.1374
  20
0.249
  42
0
  0
VERTEX
  8
Bottom_Silk
  10
0.1106
  20
0.249
  42
0
  0
SEQEND
  0
POLYLINE
  8
Bottom_Silk
  6
CONTINUOUS
  66
1
  70
0
  40
0.0031
  41
0.0031
  0
VERTEX
  8
Bottom_Silk
  10
0.1359
  20
0.249
  42
1
  0
VERTEX
  8
Bottom_Silk
  10
0.1389
  20
0.249
  42
1
  0
VERTEX
  8
Bottom_Silk
  10
0.1359
  20
0.249
  42
1
  0
SEQEND
  0
POLYLINE
  8
Bottom_Silk
  6
CONTINUOUS
  66
1
  70
0
  40
0.0031
  41
0.0031
  0
VERTEX
  8
Bottom_Silk
  10
0.1091
  20
0.249
  42
1
  0
VERTEX
  8
Bottom_Silk
  10
0.1121
  20
0.249
  42
1
  0
VERTEX
  8
Bottom_Silk
  10
0.1091
  20
0.249
  42
1
  0
SEQEND
  0
POLYLINE
  8
Bottom_Silk
  6
CONTINUOUS
  66
1
  70
0
  40
0.0062
  41
0.0062
  0
VERTEX
  8
Bottom_Silk
  10
0.3044
  20
0.1506
  42
0
  0
VERTEX
  8
Bottom_Silk
  10
0.3292
  20
0.1506
  42
0
  0
VERTEX
  8
Bottom_Silk
  10
0.3292
  20
0.1104
  42
0
  0
VERTEX
  8
Bottom_Silk
  10
0.3044
  20
0.1104
  42
0
  0
SEQEND
  0
POLYLINE
  8
Bottom_Silk
  6
CONTINUOUS
  66
1
  70
0
  40
0.0031
  41
0.0031
  0
VERTEX
  8
Bottom_Silk
  10
0.3028
  20
0.1506
  42
1
  0
VERTEX
  8
Bottom_Silk
  10
0.3059
  20
0.1506
  42
1
  0
VERTEX
  8
Bottom_Silk
  10
0.3028
  20
0.1506
  42
1
  0
SEQEND
  0
POLYLINE
  8
Bottom_Silk
  6
CONTINUOUS
  66
1
  70
0
  40
0.0031
  41
0.0031
  0
VERTEX
  8
Bottom_Silk
  10
0.3028
  20
0.1104
  42
1
  0
VERTEX
  8
Bottom_Silk
  10
0.3059
  20
0.1104
  42
1
  0
VERTEX
  8
Bottom_Silk
  10
0.3028
  20
0.1104
  42
1
  0
SEQEND
  0
POLYLINE
  8
Bottom_Silk
  6
CONTINUOUS
  66
1
  70
0
  40
0.0062
  41
0.0062
  0
VERTEX
  8
Bottom_Silk
  10
0.3292
  20
0.1314
  42
0
  0
VERTEX
  8
Bottom_Silk
  10
0.3139
  20
0.1314
  42
0
  0
SEQEND
  0
POLYLINE
  8
Bottom_Silk
  6
CONTINUOUS
  66
1
  70
0
  40
0.0031
  41
0.0031
  0
VERTEX
  8
Bottom_Silk
  10
0.3277
  20
0.1314
  42
1
  0
VERTEX
  8
Bottom_Silk
  10
0.3308
  20
0.1314
  42
1
  0
VERTEX
  8
Bottom_Silk
  10
0.3277
  20
0.1314
  42
1
  0
SEQEND
  0
POLYLINE
  8
Bottom_Silk
  6
CONTINUOUS
  66
1
  70
0
  40
0.0031
  41
0.0031
  0
VERTEX
  8
Bottom_Silk
  10
0.3124
  20
0.1314
  42
1
  0
VERTEX
  8
Bottom_Silk
  10
0.3155
  20
0.1314
  42
1
  0
VERTEX
  8
Bottom_Silk
  10
0.3124
  20
0.1314
  42
1
  0
SEQEND
  0
POLYLINE
  8
Bottom_Silk
  6
CONTINUOUS
  66
1
  70
0
  40
0.0062
  41
0.0062
  0
VERTEX
  8
Bottom_Silk
  10
0.2652
  20
0.1506
  42
0
  0
VERTEX
  8
Bottom_Silk
  10
0.2652
  20
0.1104
  42
0
  0
VERTEX
  8
Bottom_Silk
  10
0.292
  20
0.1506
  42
0
  0
VERTEX
  8
Bottom_Silk
  10
0.292
  20
0.1104
  42
0
  0
SEQEND
  0
POLYLINE
  8
Bottom_Silk
  6
CONTINUOUS
  66
1
  70
0
  40
0.0031
  41
0.0031
  0
VERTEX
  8
Bottom_Silk
  10
0.2637
  20
0.1506
  42
1
  0
VERTEX
  8
Bottom_Silk
  10
0.2668
  20
0.1506
  42
1
  0
VERTEX
  8
Bottom_Silk
  10
0.2637
  20
0.1506
  42
1
  0
SEQEND
  0
POLYLINE
  8
Bottom_Silk
  6
CONTINUOUS
  66
1
  70
0
  40
0.0031
  41
0.0031
  0
VERTEX
  8
Bottom_Silk
  10
0.2905
  20
0.1104
  42
1
  0
VERTEX
  8
Bottom_Silk
  10
0.2936
  20
0.1104
  42
1
  0
VERTEX
  8
Bottom_Silk
  10
0.2905
  20
0.1104
  42
1
  0
SEQEND
  0
POLYLINE
  8
Bottom_Silk
  6
CONTINUOUS
  66
1
  70
0
  40
0.0062
  41
0.0062
  0
VERTEX
  8
Bottom_Silk
  10
0.2222
  20
0.1104
  42
0
  0
VERTEX
  8
Bottom_Silk
  10
0.2376
  20
0.1506
  42
0
  0
VERTEX
  8
Bottom_Silk
  10
0.2529
  20
0.1104
  42
0
  0
SEQEND
  0
POLYLINE
  8
Bottom_Silk
  6
CONTINUOUS
  66
1
  70
0
  40
0.0031
  41
0.0031
  0
VERTEX
  8
Bottom_Silk
  10
0.2207
  20
0.1104
  42
1
  0
VERTEX
  8
Bottom_Silk
  10
0.2238
  20
0.1104
  42
1
  0
VERTEX
  8
Bottom_Silk
  10
0.2207
  20
0.1104
  42
1
  0
SEQEND
  0
POLYLINE
  8
Bottom_Silk
  6
CONTINUOUS
  66
1
  70
0
  40
0.0031
  41
0.0031
  0
VERTEX
  8
Bottom_Silk
  10
0.2513
  20
0.1104
  42
1
  0
VERTEX
  8
Bottom_Silk
  10
0.2544
  20
0.1104
  42
1
  0
VERTEX
  8
Bottom_Silk
  10
0.2513
  20
0.1104
  42
1
  0
SEQEND
  0
POLYLINE
  8
Bottom_Silk
  6
CONTINUOUS
  66
1
  70
0
  40
0.0062
  41
0.0062
  0
VERTEX
  8
Bottom_Silk
  10
0.2471
  20
0.1238
  42
0
  0
VERTEX
  8
Bottom_Silk
  10
0.228
  20
0.1238
  42
0
  0
SEQEND
  0
POLYLINE
  8
Bottom_Silk
  6
CONTINUOUS
  66
1
  70
0
  40
0.0031
  41
0.0031
  0
VERTEX
  8
Bottom_Silk
  10
0.2456
  20
0.1238
  42
1
  0
VERTEX
  8
Bottom_Silk
  10
0.2487
  20
0.1238
  42
1
  0
VERTEX
  8
Bottom_Silk
  10
0.2456
  20
0.1238
  42
1
  0
SEQEND
  0
POLYLINE
  8
Bottom_Silk
  6
CONTINUOUS
  66
1
  70
0
  40
0.0031
  41
0.0031
  0
VERTEX
  8
Bottom_Silk
  10
0.2265
  20
0.1238
  42
1
  0
VERTEX
  8
Bottom_Silk
  10
0.2295
  20
0.1238
  42
1
  0
VERTEX
  8
Bottom_Silk
  10
0.2265
  20
0.1238
  42
1
  0
SEQEND
  0
POLYLINE
  8
Bottom_Silk
  6
CONTINUOUS
  66
1
  70
0
  40
0.0062
  41
0.0062
  0
VERTEX
  8
Bottom_Silk
  10
0.2099
  20
0.1506
  42
0
  0
VERTEX
  8
Bottom_Silk
  10
0.2099
  20
0.1104
  42
0
  0
VERTEX
  8
Bottom_Silk
  10
0.1927
  20
0.1104
  42
0
  0
VERTEX
  8
Bottom_Silk
  10
0.1869
  20
0.1123
  42
0
  0
VERTEX
  8
Bottom_Silk
  10
0.185
  20
0.1142
  42
0
  0
VERTEX
  8
Bottom_Silk
  10
0.1831
  20
0.118
  42
0
  0
VERTEX
  8
Bottom_Silk
  10
0.1831
  20
0.1238
  42
0
  0
VERTEX
  8
Bottom_Silk
  10
0.185
  20
0.1276
  42
0
  0
VERTEX
  8
Bottom_Silk
  10
0.1869
  20
0.1295
  42
0
  0
VERTEX
  8
Bottom_Silk
  10
0.1927
  20
0.1314
  42
0
  0
VERTEX
  8
Bottom_Silk
  10
0.1869
  20
0.1334
  42
0
  0
VERTEX
  8
Bottom_Silk
  10
0.185
  20
0.1353
  42
0
  0
VERTEX
  8
Bottom_Silk
  10
0.1831
  20
0.1391
  42
0
  0
VERTEX
  8
Bottom_Silk
  10
0.1831
  20
0.1429
  42
0
  0
VERTEX
  8
Bottom_Silk
  10
0.185
  20
0.1467
  42
0
  0
VERTEX
  8
Bottom_Silk
  10
0.1869
  20
0.1487
  42
0
  0
VERTEX
  8
Bottom_Silk
  10
0.1927
  20
0.1506
  42
0
  0
VERTEX
  8
Bottom_Silk
  10
0.2099
  20
0.1506
  42
0
  0
SEQEND
  0
POLYLINE
  8
Bottom_Silk
  6
CONTINUOUS
  66
1
  70
0
  40
0.0031
  41
0.0031
  0
VERTEX
  8
Bottom_Silk
  10
0.2084
  20
0.1506
  42
1
  0
VERTEX
  8
Bottom_Silk
  10
0.2114
  20
0.1506
  42
1
  0
VERTEX
  8
Bottom_Silk
  10
0.2084
  20
0.1506
  42
1
  0
SEQEND
  0
POLYLINE
  8
Bottom_Silk
  6
CONTINUOUS
  66
1
  70
0
  40
0.0062
  41
0.0062
  0
VERTEX
  8
Bottom_Silk
  10
0.2099
  20
0.1314
  42
0
  0
VERTEX
  8
Bottom_Silk
  10
0.1927
  20
0.1314
  42
0
  0
SEQEND
  0
POLYLINE
  8
Bottom_Silk
  6
CONTINUOUS
  66
1
  70
0
  40
0.0031
  41
0.0031
  0
VERTEX
  8
Bottom_Silk
  10
0.2084
  20
0.1314
  42
1
  0
VERTEX
  8
Bottom_Silk
  10
0.2114
  20
0.1314
  42
1
  0
VERTEX
  8
Bottom_Silk
  10
0.2084
  20
0.1314
  42
1
  0
SEQEND
  0
POLYLINE
  8
Bottom_Silk
  6
CONTINUOUS
  66
1
  70
0
  40
0.0031
  41
0.0031
  0
VERTEX
  8
Bottom_Silk
  10
0.1911
  20
0.1314
  42
1
  0
VERTEX
  8
Bottom_Silk
  10
0.1942
  20
0.1314
  42
1
  0
VERTEX
  8
Bottom_Silk
  10
0.1911
  20
0.1314
  42
1
  0
SEQEND
  0
POLYLINE
  8
Bottom_Silk
  6
CONTINUOUS
  66
1
  70
0
  40
0.0062
  41
0.0062
  0
VERTEX
  8
Bottom_Silk
  10
0.1708
  20
0.1506
  42
0
  0
VERTEX
  8
Bottom_Silk
  10
0.1708
  20
0.1104
  42
0
  0
VERTEX
  8
Bottom_Silk
  10
0.1478
  20
0.1104
  42
0
  0
SEQEND
  0
POLYLINE
  8
Bottom_Silk
  6
CONTINUOUS
  66
1
  70
0
  40
0.0031
  41
0.0031
  0
VERTEX
  8
Bottom_Silk
  10
0.1692
  20
0.1506
  42
1
  0
VERTEX
  8
Bottom_Silk
  10
0.1723
  20
0.1506
  42
1
  0
VERTEX
  8
Bottom_Silk
  10
0.1692
  20
0.1506
  42
1
  0
SEQEND
  0
POLYLINE
  8
Bottom_Silk
  6
CONTINUOUS
  66
1
  70
0
  40
0.0031
  41
0.0031
  0
VERTEX
  8
Bottom_Silk
  10
0.1463
  20
0.1104
  42
1
  0
VERTEX
  8
Bottom_Silk
  10
0.1493
  20
0.1104
  42
1
  0
VERTEX
  8
Bottom_Silk
  10
0.1463
  20
0.1104
  42
1
  0
SEQEND
  0
POLYLINE
  8
Bottom_Silk
  6
CONTINUOUS
  66
1
  70
0
  40
0.0062
  41
0.0062
  0
VERTEX
  8
Bottom_Silk
  10
0.1106
  20
0.1506
  42
0
  0
VERTEX
  8
Bottom_Silk
  10
0.1355
  20
0.1506
  42
0
  0
VERTEX
  8
Bottom_Silk
  10
0.1355
  20
0.1104
  42
0
  0
VERTEX
  8
Bottom_Silk
  10
0.1106
  20
0.1104
  42
0
  0
SEQEND
  0
POLYLINE
  8
Bottom_Silk
  6
CONTINUOUS
  66
1
  70
0
  40
0.0031
  41
0.0031
  0
VERTEX
  8
Bottom_Silk
  10
0.1091
  20
0.1506
  42
1
  0
VERTEX
  8
Bottom_Silk
  10
0.1121
  20
0.1506
  42
1
  0
VERTEX
  8
Bottom_Silk
  10
0.1091
  20
0.1506
  42
1
  0
SEQEND
  0
POLYLINE
  8
Bottom_Silk
  6
CONTINUOUS
  66
1
  70
0
  40
0.0031
  41
0.0031
  0
VERTEX
  8
Bottom_Silk
  10
0.1091
  20
0.1104
  42
1
  0
VERTEX
  8
Bottom_Silk
  10
0.1121
  20
0.1104
  42
1
  0
VERTEX
  8
Bottom_Silk
  10
0.1091
  20
0.1104
  42
1
  0
SEQEND
  0
POLYLINE
  8
Bottom_Silk
  6
CONTINUOUS
  66
1
  70
0
  40
0.0062
  41
0.0062
  0
VERTEX
  8
Bottom_Silk
  10
0.1355
  20
0.1314
  42
0
  0
VERTEX
  8
Bottom_Silk
  10
0.1202
  20
0.1314
  42
0
  0
SEQEND
  0
POLYLINE
  8
Bottom_Silk
  6
CONTINUOUS
  66
1
  70
0
  40
0.0031
  41
0.0031
  0
VERTEX
  8
Bottom_Silk
  10
0.1339
  20
0.1314
  42
1
  0
VERTEX
  8
Bottom_Silk
  10
0.137
  20
0.1314
  42
1
  0
VERTEX
  8
Bottom_Silk
  10
0.1339
  20
0.1314
  42
1
  0
SEQEND
  0
POLYLINE
  8
Bottom_Silk
  6
CONTINUOUS
  66
1
  70
0
  40
0.0031
  41
0.0031
  0
VERTEX
  8
Bottom_Silk
  10
0.1186
  20
0.1314
  42
1
  0
VERTEX
  8
Bottom_Silk
  10
0.1217
  20
0.1314
  42
1
  0
VERTEX
  8
Bottom_Silk
  10
0.1186
  20
0.1314
  42
1
  0
SEQEND
  0
POLYLINE
  8
Bottom_Silk
  6
CONTINUOUS
  66
1
  70
0
  40
0.0093
  41
0.0093
  0
VERTEX
  8
Bottom_Silk
  10
0.6563
  20
0.6226
  42
0
  0
VERTEX
  8
Bottom_Silk
  10
0.6563
  20
0.5767
  42
0
  0
VERTEX
  8
Bottom_Silk
  10
0.6592
  20
0.5681
  42
0
  0
VERTEX
  8
Bottom_Silk
  10
0.6621
  20
0.5653
  42
0
  0
VERTEX
  8
Bottom_Silk
  10
0.6678
  20
0.5623
  42
0
  0
VERTEX
  8
Bottom_Silk
  10
0.6736
  20
0.5623
  42
0
  0
VERTEX
  8
Bottom_Silk
  10
0.6793
  20
0.5653
  42
0
  0
VERTEX
  8
Bottom_Silk
  10
0.6821
  20
0.5681
  42
0
  0
VERTEX
  8
Bottom_Silk
  10
0.6851
  20
0.5767
  42
0
  0
VERTEX
  8
Bottom_Silk
  10
0.6851
  20
0.5824
  42
0
  0
SEQEND
  0
POLYLINE
  8
Bottom_Silk
  6
CONTINUOUS
  66
1
  70
0
  40
0.0046
  41
0.0046
  0
VERTEX
  8
Bottom_Silk
  10
0.654
  20
0.6226
  42
1
  0
VERTEX
  8
Bottom_Silk
  10
0.6587
  20
0.6226
  42
1
  0
VERTEX
  8
Bottom_Silk
  10
0.654
  20
0.6226
  42
1
  0
SEQEND
  0
POLYLINE
  8
Bottom_Silk
  6
CONTINUOUS
  66
1
  70
0
  40
0.0046
  41
0.0046
  0
VERTEX
  8
Bottom_Silk
  10
0.6827
  20
0.5824
  42
1
  0
VERTEX
  8
Bottom_Silk
  10
0.6874
  20
0.5824
  42
1
  0
VERTEX
  8
Bottom_Silk
  10
0.6827
  20
0.5824
  42
1
  0
SEQEND
  0
POLYLINE
  8
Bottom_Silk
  6
CONTINUOUS
  66
1
  70
0
  40
0.0093
  41
0.0093
  0
VERTEX
  8
Bottom_Silk
  10
0.6378
  20
0.6226
  42
0
  0
VERTEX
  8
Bottom_Silk
  10
0.6378
  20
0.5623
  42
0
  0
SEQEND
  0
POLYLINE
  8
Bottom_Silk
  6
CONTINUOUS
  66
1
  70
0
  40
0.0046
  41
0.0046
  0
VERTEX
  8
Bottom_Silk
  10
0.6355
  20
0.6226
  42
1
  0
VERTEX
  8
Bottom_Silk
  10
0.6401
  20
0.6226
  42
1
  0
VERTEX
  8
Bottom_Silk
  10
0.6355
  20
0.6226
  42
1
  0
SEQEND
  0
POLYLINE
  8
Bottom_Silk
  6
CONTINUOUS
  66
1
  70
0
  40
0.0046
  41
0.0046
  0
VERTEX
  8
Bottom_Silk
  10
0.6355
  20
0.5623
  42
1
  0
VERTEX
  8
Bottom_Silk
  10
0.6401
  20
0.5623
  42
1
  0
VERTEX
  8
Bottom_Silk
  10
0.6355
  20
0.5623
  42
1
  0
SEQEND
  0
POLYLINE
  8
Bottom_Silk
  6
CONTINUOUS
  66
1
  70
0
  40
0.0093
  41
0.0093
  0
VERTEX
  8
Bottom_Silk
  10
0.5976
  20
0.6226
  42
0
  0
VERTEX
  8
Bottom_Silk
  10
0.6378
  20
0.5824
  42
0
  0
SEQEND
  0
POLYLINE
  8
Bottom_Silk
  6
CONTINUOUS
  66
1
  70
0
  40
0.0046
  41
0.0046
  0
VERTEX
  8
Bottom_Silk
  10
0.5953
  20
0.6226
  42
1
  0
VERTEX
  8
Bottom_Silk
  10
0.5999
  20
0.6226
  42
1
  0
VERTEX
  8
Bottom_Silk
  10
0.5953
  20
0.6226
  42
1
  0
SEQEND
  0
POLYLINE
  8
Bottom_Silk
  6
CONTINUOUS
  66
1
  70
0
  40
0.0046
  41
0.0046
  0
VERTEX
  8
Bottom_Silk
  10
0.6355
  20
0.5824
  42
1
  0
VERTEX
  8
Bottom_Silk
  10
0.6401
  20
0.5824
  42
1
  0
VERTEX
  8
Bottom_Silk
  10
0.6355
  20
0.5824
  42
1
  0
SEQEND
  0
POLYLINE
  8
Bottom_Silk
  6
CONTINUOUS
  66
1
  70
0
  40
0.0093
  41
0.0093
  0
VERTEX
  8
Bottom_Silk
  10
0.6235
  20
0.5968
  42
0
  0
VERTEX
  8
Bottom_Silk
  10
0.5976
  20
0.5623
  42
0
  0
SEQEND
  0
POLYLINE
  8
Bottom_Silk
  6
CONTINUOUS
  66
1
  70
0
  40
0.0046
  41
0.0046
  0
VERTEX
  8
Bottom_Silk
  10
0.6212
  20
0.5968
  42
1
  0
VERTEX
  8
Bottom_Silk
  10
0.6258
  20
0.5968
  42
1
  0
VERTEX
  8
Bottom_Silk
  10
0.6212
  20
0.5968
  42
1
  0
SEQEND
  0
POLYLINE
  8
Bottom_Silk
  6
CONTINUOUS
  66
1
  70
0
  40
0.0046
  41
0.0046
  0
VERTEX
  8
Bottom_Silk
  10
0.5953
  20
0.5623
  42
1
  0
VERTEX
  8
Bottom_Silk
  10
0.5999
  20
0.5623
  42
1
  0
VERTEX
  8
Bottom_Silk
  10
0.5953
  20
0.5623
  42
1
  0
SEQEND
  0
POLYLINE
  8
Bottom_Silk
  6
CONTINUOUS
  66
1
  70
0
  40
0.0062
  41
0.0062
  0
VERTEX
  8
Bottom_Silk
  10
0.5542
  20
0.6006
  42
0
  0
VERTEX
  8
Bottom_Silk
  10
0.5791
  20
0.6006
  42
0
  0
VERTEX
  8
Bottom_Silk
  10
0.5791
  20
0.5605
  42
0
  0
VERTEX
  8
Bottom_Silk
  10
0.5542
  20
0.5605
  42
0
  0
SEQEND
  0
POLYLINE
  8
Bottom_Silk
  6
CONTINUOUS
  66
1
  70
0
  40
0.0031
  41
0.0031
  0
VERTEX
  8
Bottom_Silk
  10
0.5527
  20
0.6006
  42
1
  0
VERTEX
  8
Bottom_Silk
  10
0.5558
  20
0.6006
  42
1
  0
VERTEX
  8
Bottom_Silk
  10
0.5527
  20
0.6006
  42
1
  0
SEQEND
  0
POLYLINE
  8
Bottom_Silk
  6
CONTINUOUS
  66
1
  70
0
  40
0.0031
  41
0.0031
  0
VERTEX
  8
Bottom_Silk
  10
0.5527
  20
0.5605
  42
1
  0
VERTEX
  8
Bottom_Silk
  10
0.5558
  20
0.5605
  42
1
  0
VERTEX
  8
Bottom_Silk
  10
0.5527
  20
0.5605
  42
1
  0
SEQEND
  0
POLYLINE
  8
Bottom_Silk
  6
CONTINUOUS
  66
1
  70
0
  40
0.0062
  41
0.0062
  0
VERTEX
  8
Bottom_Silk
  10
0.5791
  20
0.5815
  42
0
  0
VERTEX
  8
Bottom_Silk
  10
0.5638
  20
0.5815
  42
0
  0
SEQEND
  0
POLYLINE
  8
Bottom_Silk
  6
CONTINUOUS
  66
1
  70
0
  40
0.0031
  41
0.0031
  0
VERTEX
  8
Bottom_Silk
  10
0.5775
  20
0.5815
  42
1
  0
VERTEX
  8
Bottom_Silk
  10
0.5806
  20
0.5815
  42
1
  0
VERTEX
  8
Bottom_Silk
  10
0.5775
  20
0.5815
  42
1
  0
SEQEND
  0
POLYLINE
  8
Bottom_Silk
  6
CONTINUOUS
  66
1
  70
0
  40
0.0031
  41
0.0031
  0
VERTEX
  8
Bottom_Silk
  10
0.5622
  20
0.5815
  42
1
  0
VERTEX
  8
Bottom_Silk
  10
0.5653
  20
0.5815
  42
1
  0
VERTEX
  8
Bottom_Silk
  10
0.5622
  20
0.5815
  42
1
  0
SEQEND
  0
POLYLINE
  8
Bottom_Silk
  6
CONTINUOUS
  66
1
  70
0
  40
0.0062
  41
0.0062
  0
VERTEX
  8
Bottom_Silk
  10
0.5419
  20
0.6006
  42
0
  0
VERTEX
  8
Bottom_Silk
  10
0.5419
  20
0.5605
  42
0
  0
SEQEND
  0
POLYLINE
  8
Bottom_Silk
  6
CONTINUOUS
  66
1
  70
0
  40
0.0031
  41
0.0031
  0
VERTEX
  8
Bottom_Silk
  10
0.5403
  20
0.6006
  42
1
  0
VERTEX
  8
Bottom_Silk
  10
0.5434
  20
0.6006
  42
1
  0
VERTEX
  8
Bottom_Silk
  10
0.5403
  20
0.6006
  42
1
  0
SEQEND
  0
POLYLINE
  8
Bottom_Silk
  6
CONTINUOUS
  66
1
  70
0
  40
0.0031
  41
0.0031
  0
VERTEX
  8
Bottom_Silk
  10
0.5403
  20
0.5605
  42
1
  0
VERTEX
  8
Bottom_Silk
  10
0.5434
  20
0.5605
  42
1
  0
VERTEX
  8
Bottom_Silk
  10
0.5403
  20
0.5605
  42
1
  0
SEQEND
  0
POLYLINE
  8
Bottom_Silk
  6
CONTINUOUS
  66
1
  70
0
  40
0.0062
  41
0.0062
  0
VERTEX
  8
Bottom_Silk
  10
0.5295
  20
0.5758
  42
0
  0
VERTEX
  8
Bottom_Silk
  10
0.5066
  20
0.5758
  42
0
  0
VERTEX
  8
Bottom_Silk
  10
0.5066
  20
0.5796
  42
0
  0
VERTEX
  8
Bottom_Silk
  10
0.5085
  20
0.5834
  42
0
  0
VERTEX
  8
Bottom_Silk
  10
0.5104
  20
0.5853
  42
0
  0
VERTEX
  8
Bottom_Silk
  10
0.5142
  20
0.5872
  42
0
  0
VERTEX
  8
Bottom_Silk
  10
0.52
  20
0.5872
  42
0
  0
VERTEX
  8
Bottom_Silk
  10
0.5238
  20
0.5853
  42
0
  0
VERTEX
  8
Bottom_Silk
  10
0.5276
  20
0.5815
  42
0
  0
VERTEX
  8
Bottom_Silk
  10
0.5295
  20
0.5758
  42
0
  0
VERTEX
  8
Bottom_Silk
  10
0.5295
  20
0.5719
  42
0
  0
VERTEX
  8
Bottom_Silk
  10
0.5276
  20
0.5662
  42
0
  0
VERTEX
  8
Bottom_Silk
  10
0.5238
  20
0.5624
  42
0
  0
VERTEX
  8
Bottom_Silk
  10
0.52
  20
0.5605
  42
0
  0
VERTEX
  8
Bottom_Silk
  10
0.5142
  20
0.5605
  42
0
  0
VERTEX
  8
Bottom_Silk
  10
0.5104
  20
0.5624
  42
0
  0
VERTEX
  8
Bottom_Silk
  10
0.5066
  20
0.5662
  42
0
  0
SEQEND
  0
POLYLINE
  8
Bottom_Silk
  6
CONTINUOUS
  66
1
  70
0
  40
0.0031
  41
0.0031
  0
VERTEX
  8
Bottom_Silk
  10
0.528
  20
0.5758
  42
1
  0
VERTEX
  8
Bottom_Silk
  10
0.531
  20
0.5758
  42
1
  0
VERTEX
  8
Bottom_Silk
  10
0.528
  20
0.5758
  42
1
  0
SEQEND
  0
POLYLINE
  8
Bottom_Silk
  6
CONTINUOUS
  66
1
  70
0
  40
0.0031
  41
0.0031
  0
VERTEX
  8
Bottom_Silk
  10
0.505
  20
0.5662
  42
1
  0
VERTEX
  8
Bottom_Silk
  10
0.5081
  20
0.5662
  42
1
  0
VERTEX
  8
Bottom_Silk
  10
0.505
  20
0.5662
  42
1
  0
SEQEND
  0
POLYLINE
  8
Bottom_Silk
  6
CONTINUOUS
  66
1
  70
0
  40
0.0062
  41
0.0062
  0
VERTEX
  8
Bottom_Silk
  10
0.4712
  20
0.5815
  42
0
  0
VERTEX
  8
Bottom_Silk
  10
0.4751
  20
0.5853
  42
0
  0
VERTEX
  8
Bottom_Silk
  10
0.4789
  20
0.5872
  42
0
  0
VERTEX
  8
Bottom_Silk
  10
0.4846
  20
0.5872
  42
0
  0
VERTEX
  8
Bottom_Silk
  10
0.4885
  20
0.5853
  42
0
  0
VERTEX
  8
Bottom_Silk
  10
0.4923
  20
0.5815
  42
0
  0
VERTEX
  8
Bottom_Silk
  10
0.4942
  20
0.5758
  42
0
  0
VERTEX
  8
Bottom_Silk
  10
0.4942
  20
0.5719
  42
0
  0
VERTEX
  8
Bottom_Silk
  10
0.4923
  20
0.5662
  42
0
  0
VERTEX
  8
Bottom_Silk
  10
0.4885
  20
0.5624
  42
0
  0
VERTEX
  8
Bottom_Silk
  10
0.4846
  20
0.5605
  42
0
  0
VERTEX
  8
Bottom_Silk
  10
0.4789
  20
0.5605
  42
0
  0
VERTEX
  8
Bottom_Silk
  10
0.4751
  20
0.5624
  42
0
  0
VERTEX
  8
Bottom_Silk
  10
0.4712
  20
0.5662
  42
0
  0
SEQEND
  0
POLYLINE
  8
Bottom_Silk
  6
CONTINUOUS
  66
1
  70
0
  40
0.0031
  41
0.0031
  0
VERTEX
  8
Bottom_Silk
  10
0.4697
  20
0.5815
  42
1
  0
VERTEX
  8
Bottom_Silk
  10
0.4728
  20
0.5815
  42
1
  0
VERTEX
  8
Bottom_Silk
  10
0.4697
  20
0.5815
  42
1
  0
SEQEND
  0
POLYLINE
  8
Bottom_Silk
  6
CONTINUOUS
  66
1
  70
0
  40
0.0031
  41
0.0031
  0
VERTEX
  8
Bottom_Silk
  10
0.4697
  20
0.5662
  42
1
  0
VERTEX
  8
Bottom_Silk
  10
0.4728
  20
0.5662
  42
1
  0
VERTEX
  8
Bottom_Silk
  10
0.4697
  20
0.5662
  42
1
  0
SEQEND
  0
POLYLINE
  8
Bottom_Silk
  6
CONTINUOUS
  66
1
  70
0
  40
0.0062
  41
0.0062
  0
VERTEX
  8
Bottom_Silk
  10
0.4531
  20
0.6006
  42
0
  0
VERTEX
  8
Bottom_Silk
  10
0.4531
  20
0.5681
  42
0
  0
VERTEX
  8
Bottom_Silk
  10
0.4512
  20
0.5624
  42
0
  0
VERTEX
  8
Bottom_Silk
  10
0.4474
  20
0.5605
  42
0
  0
VERTEX
  8
Bottom_Silk
  10
0.4436
  20
0.5605
  42
0
  0
SEQEND
  0
POLYLINE
  8
Bottom_Silk
  6
CONTINUOUS
  66
1
  70
0
  40
0.0031
  41
0.0031
  0
VERTEX
  8
Bottom_Silk
  10
0.4516
  20
0.6006
  42
1
  0
VERTEX
  8
Bottom_Silk
  10
0.4547
  20
0.6006
  42
1
  0
VERTEX
  8
Bottom_Silk
  10
0.4516
  20
0.6006
  42
1
  0
SEQEND
  0
POLYLINE
  8
Bottom_Silk
  6
CONTINUOUS
  66
1
  70
0
  40
0.0031
  41
0.0031
  0
VERTEX
  8
Bottom_Silk
  10
0.442
  20
0.5605
  42
1
  0
VERTEX
  8
Bottom_Silk
  10
0.4451
  20
0.5605
  42
1
  0
VERTEX
  8
Bottom_Silk
  10
0.442
  20
0.5605
  42
1
  0
SEQEND
  0
POLYLINE
  8
Bottom_Silk
  6
CONTINUOUS
  66
1
  70
0
  40
0.0062
  41
0.0062
  0
VERTEX
  8
Bottom_Silk
  10
0.4589
  20
0.5872
  42
0
  0
VERTEX
  8
Bottom_Silk
  10
0.4455
  20
0.5872
  42
0
  0
SEQEND
  0
POLYLINE
  8
Bottom_Silk
  6
CONTINUOUS
  66
1
  70
0
  40
0.0031
  41
0.0031
  0
VERTEX
  8
Bottom_Silk
  10
0.4573
  20
0.5872
  42
1
  0
VERTEX
  8
Bottom_Silk
  10
0.4604
  20
0.5872
  42
1
  0
VERTEX
  8
Bottom_Silk
  10
0.4573
  20
0.5872
  42
1
  0
SEQEND
  0
POLYLINE
  8
Bottom_Silk
  6
CONTINUOUS
  66
1
  70
0
  40
0.0031
  41
0.0031
  0
VERTEX
  8
Bottom_Silk
  10
0.4439
  20
0.5872
  42
1
  0
VERTEX
  8
Bottom_Silk
  10
0.447
  20
0.5872
  42
1
  0
VERTEX
  8
Bottom_Silk
  10
0.4439
  20
0.5872
  42
1
  0
SEQEND
  0
POLYLINE
  8
Bottom_Silk
  6
CONTINUOUS
  66
1
  70
0
  40
0.0062
  41
0.0062
  0
VERTEX
  8
Bottom_Silk
  10
0.4312
  20
0.5872
  42
0
  0
VERTEX
  8
Bottom_Silk
  10
0.4312
  20
0.5605
  42
0
  0
SEQEND
  0
POLYLINE
  8
Bottom_Silk
  6
CONTINUOUS
  66
1
  70
0
  40
0.0031
  41
0.0031
  0
VERTEX
  8
Bottom_Silk
  10
0.4297
  20
0.5872
  42
1
  0
VERTEX
  8
Bottom_Silk
  10
0.4328
  20
0.5872
  42
1
  0
VERTEX
  8
Bottom_Silk
  10
0.4297
  20
0.5872
  42
1
  0
SEQEND
  0
POLYLINE
  8
Bottom_Silk
  6
CONTINUOUS
  66
1
  70
0
  40
0.0031
  41
0.0031
  0
VERTEX
  8
Bottom_Silk
  10
0.4297
  20
0.5605
  42
1
  0
VERTEX
  8
Bottom_Silk
  10
0.4328
  20
0.5605
  42
1
  0
VERTEX
  8
Bottom_Silk
  10
0.4297
  20
0.5605
  42
1
  0
SEQEND
  0
POLYLINE
  8
Bottom_Silk
  6
CONTINUOUS
  66
1
  70
0
  40
0.0062
  41
0.0062
  0
VERTEX
  8
Bottom_Silk
  10
0.4312
  20
0.5758
  42
0
  0
VERTEX
  8
Bottom_Silk
  10
0.4293
  20
0.5815
  42
0
  0
VERTEX
  8
Bottom_Silk
  10
0.4255
  20
0.5853
  42
0
  0
VERTEX
  8
Bottom_Silk
  10
0.4216
  20
0.5872
  42
0
  0
VERTEX
  8
Bottom_Silk
  10
0.4159
  20
0.5872
  42
0
  0
SEQEND
  0
POLYLINE
  8
Bottom_Silk
  6
CONTINUOUS
  66
1
  70
0
  40
0.0031
  41
0.0031
  0
VERTEX
  8
Bottom_Silk
  10
0.4297
  20
0.5758
  42
1
  0
VERTEX
  8
Bottom_Silk
  10
0.4328
  20
0.5758
  42
1
  0
VERTEX
  8
Bottom_Silk
  10
0.4297
  20
0.5758
  42
1
  0
SEQEND
  0
POLYLINE
  8
Bottom_Silk
  6
CONTINUOUS
  66
1
  70
0
  40
0.0031
  41
0.0031
  0
VERTEX
  8
Bottom_Silk
  10
0.4143
  20
0.5872
  42
1
  0
VERTEX
  8
Bottom_Silk
  10
0.4174
  20
0.5872
  42
1
  0
VERTEX
  8
Bottom_Silk
  10
0.4143
  20
0.5872
  42
1
  0
SEQEND
  0
POLYLINE
  8
Bottom_Silk
  6
CONTINUOUS
  66
1
  70
0
  40
0.0062
  41
0.0062
  0
VERTEX
  8
Bottom_Silk
  10
0.394
  20
0.5872
  42
0
  0
VERTEX
  8
Bottom_Silk
  10
0.3978
  20
0.5853
  42
0
  0
VERTEX
  8
Bottom_Silk
  10
0.4016
  20
0.5815
  42
0
  0
VERTEX
  8
Bottom_Silk
  10
0.4035
  20
0.5758
  42
0
  0
VERTEX
  8
Bottom_Silk
  10
0.4035
  20
0.5719
  42
0
  0
VERTEX
  8
Bottom_Silk
  10
0.4016
  20
0.5662
  42
0
  0
VERTEX
  8
Bottom_Silk
  10
0.3978
  20
0.5624
  42
0
  0
VERTEX
  8
Bottom_Silk
  10
0.394
  20
0.5605
  42
0
  0
VERTEX
  8
Bottom_Silk
  10
0.3882
  20
0.5605
  42
0
  0
VERTEX
  8
Bottom_Silk
  10
0.3844
  20
0.5624
  42
0
  0
VERTEX
  8
Bottom_Silk
  10
0.3806
  20
0.5662
  42
0
  0
VERTEX
  8
Bottom_Silk
  10
0.3786
  20
0.5719
  42
0
  0
VERTEX
  8
Bottom_Silk
  10
0.3786
  20
0.5758
  42
0
  0
VERTEX
  8
Bottom_Silk
  10
0.3806
  20
0.5815
  42
0
  0
VERTEX
  8
Bottom_Silk
  10
0.3844
  20
0.5853
  42
0
  0
VERTEX
  8
Bottom_Silk
  10
0.3882
  20
0.5872
  42
0
  0
VERTEX
  8
Bottom_Silk
  10
0.394
  20
0.5872
  42
0
  0
SEQEND
  0
POLYLINE
  8
Bottom_Silk
  6
CONTINUOUS
  66
1
  70
0
  40
0.0031
  41
0.0031
  0
VERTEX
  8
Bottom_Silk
  10
0.3924
  20
0.5872
  42
1
  0
VERTEX
  8
Bottom_Silk
  10
0.3955
  20
0.5872
  42
1
  0
VERTEX
  8
Bottom_Silk
  10
0.3924
  20
0.5872
  42
1
  0
SEQEND
  0
POLYLINE
  8
Bottom_Silk
  6
CONTINUOUS
  66
1
  70
0
  40
0.0062
  41
0.0062
  0
VERTEX
  8
Bottom_Silk
  10
0.3663
  20
0.5872
  42
0
  0
VERTEX
  8
Bottom_Silk
  10
0.3663
  20
0.5605
  42
0
  0
SEQEND
  0
POLYLINE
  8
Bottom_Silk
  6
CONTINUOUS
  66
1
  70
0
  40
0.0031
  41
0.0031
  0
VERTEX
  8
Bottom_Silk
  10
0.3647
  20
0.5872
  42
1
  0
VERTEX
  8
Bottom_Silk
  10
0.3678
  20
0.5872
  42
1
  0
VERTEX
  8
Bottom_Silk
  10
0.3647
  20
0.5872
  42
1
  0
SEQEND
  0
POLYLINE
  8
Bottom_Silk
  6
CONTINUOUS
  66
1
  70
0
  40
0.0031
  41
0.0031
  0
VERTEX
  8
Bottom_Silk
  10
0.3647
  20
0.5605
  42
1
  0
VERTEX
  8
Bottom_Silk
  10
0.3678
  20
0.5605
  42
1
  0
VERTEX
  8
Bottom_Silk
  10
0.3647
  20
0.5605
  42
1
  0
SEQEND
  0
POLYLINE
  8
Bottom_Silk
  6
CONTINUOUS
  66
1
  70
0
  40
0.0062
  41
0.0062
  0
VERTEX
  8
Bottom_Silk
  10
0.3663
  20
0.5796
  42
0
  0
VERTEX
  8
Bottom_Silk
  10
0.3605
  20
0.5853
  42
0
  0
VERTEX
  8
Bottom_Silk
  10
0.3567
  20
0.5872
  42
0
  0
VERTEX
  8
Bottom_Silk
  10
0.351
  20
0.5872
  42
0
  0
VERTEX
  8
Bottom_Silk
  10
0.3471
  20
0.5853
  42
0
  0
VERTEX
  8
Bottom_Silk
  10
0.3452
  20
0.5796
  42
0
  0
VERTEX
  8
Bottom_Silk
  10
0.3452
  20
0.5605
  42
0
  0
SEQEND
  0
POLYLINE
  8
Bottom_Silk
  6
CONTINUOUS
  66
1
  70
0
  40
0.0031
  41
0.0031
  0
VERTEX
  8
Bottom_Silk
  10
0.3647
  20
0.5796
  42
1
  0
VERTEX
  8
Bottom_Silk
  10
0.3678
  20
0.5796
  42
1
  0
VERTEX
  8
Bottom_Silk
  10
0.3647
  20
0.5796
  42
1
  0
SEQEND
  0
POLYLINE
  8
Bottom_Silk
  6
CONTINUOUS
  66
1
  70
0
  40
0.0031
  41
0.0031
  0
VERTEX
  8
Bottom_Silk
  10
0.3437
  20
0.5605
  42
1
  0
VERTEX
  8
Bottom_Silk
  10
0.3468
  20
0.5605
  42
1
  0
VERTEX
  8
Bottom_Silk
  10
0.3437
  20
0.5605
  42
1
  0
SEQEND
  0
POLYLINE
  8
Bottom_Silk
  6
CONTINUOUS
  66
1
  70
0
  40
0.0062
  41
0.0062
  0
VERTEX
  8
Bottom_Silk
  10
0.3329
  20
0.6006
  42
0
  0
VERTEX
  8
Bottom_Silk
  10
0.331
  20
0.5987
  42
0
  0
VERTEX
  8
Bottom_Silk
  10
0.329
  20
0.6006
  42
0
  0
VERTEX
  8
Bottom_Silk
  10
0.331
  20
0.6026
  42
0
  0
VERTEX
  8
Bottom_Silk
  10
0.3329
  20
0.6006
  42
0
  0
SEQEND
  0
POLYLINE
  8
Bottom_Silk
  6
CONTINUOUS
  66
1
  70
0
  40
0.0031
  41
0.0031
  0
VERTEX
  8
Bottom_Silk
  10
0.3313
  20
0.6006
  42
1
  0
VERTEX
  8
Bottom_Silk
  10
0.3344
  20
0.6006
  42
1
  0
VERTEX
  8
Bottom_Silk
  10
0.3313
  20
0.6006
  42
1
  0
SEQEND
  0
POLYLINE
  8
Bottom_Silk
  6
CONTINUOUS
  66
1
  70
0
  40
0.0062
  41
0.0062
  0
VERTEX
  8
Bottom_Silk
  10
0.331
  20
0.5872
  42
0
  0
VERTEX
  8
Bottom_Silk
  10
0.331
  20
0.5605
  42
0
  0
SEQEND
  0
POLYLINE
  8
Bottom_Silk
  6
CONTINUOUS
  66
1
  70
0
  40
0.0031
  41
0.0031
  0
VERTEX
  8
Bottom_Silk
  10
0.3294
  20
0.5872
  42
1
  0
VERTEX
  8
Bottom_Silk
  10
0.3325
  20
0.5872
  42
1
  0
VERTEX
  8
Bottom_Silk
  10
0.3294
  20
0.5872
  42
1
  0
SEQEND
  0
POLYLINE
  8
Bottom_Silk
  6
CONTINUOUS
  66
1
  70
0
  40
0.0031
  41
0.0031
  0
VERTEX
  8
Bottom_Silk
  10
0.3294
  20
0.5605
  42
1
  0
VERTEX
  8
Bottom_Silk
  10
0.3325
  20
0.5605
  42
1
  0
VERTEX
  8
Bottom_Silk
  10
0.3294
  20
0.5605
  42
1
  0
SEQEND
  0
POLYLINE
  8
Bottom_Silk
  6
CONTINUOUS
  66
1
  70
0
  40
0.0062
  41
0.0062
  0
VERTEX
  8
Bottom_Silk
  10
0.2937
  20
0.5815
  42
0
  0
VERTEX
  8
Bottom_Silk
  10
0.2975
  20
0.5853
  42
0
  0
VERTEX
  8
Bottom_Silk
  10
0.3014
  20
0.5872
  42
0
  0
VERTEX
  8
Bottom_Silk
  10
0.3071
  20
0.5872
  42
0
  0
VERTEX
  8
Bottom_Silk
  10
0.3109
  20
0.5853
  42
0
  0
VERTEX
  8
Bottom_Silk
  10
0.3147
  20
0.5815
  42
0
  0
VERTEX
  8
Bottom_Silk
  10
0.3167
  20
0.5758
  42
0
  0
VERTEX
  8
Bottom_Silk
  10
0.3167
  20
0.5719
  42
0
  0
VERTEX
  8
Bottom_Silk
  10
0.3147
  20
0.5662
  42
0
  0
VERTEX
  8
Bottom_Silk
  10
0.3109
  20
0.5624
  42
0
  0
VERTEX
  8
Bottom_Silk
  10
0.3071
  20
0.5605
  42
0
  0
VERTEX
  8
Bottom_Silk
  10
0.3014
  20
0.5605
  42
0
  0
VERTEX
  8
Bottom_Silk
  10
0.2975
  20
0.5624
  42
0
  0
VERTEX
  8
Bottom_Silk
  10
0.2937
  20
0.5662
  42
0
  0
SEQEND
  0
POLYLINE
  8
Bottom_Silk
  6
CONTINUOUS
  66
1
  70
0
  40
0.0031
  41
0.0031
  0
VERTEX
  8
Bottom_Silk
  10
0.2921
  20
0.5815
  42
1
  0
VERTEX
  8
Bottom_Silk
  10
0.2952
  20
0.5815
  42
1
  0
VERTEX
  8
Bottom_Silk
  10
0.2921
  20
0.5815
  42
1
  0
SEQEND
  0
POLYLINE
  8
Bottom_Silk
  6
CONTINUOUS
  66
1
  70
0
  40
0.0031
  41
0.0031
  0
VERTEX
  8
Bottom_Silk
  10
0.2921
  20
0.5662
  42
1
  0
VERTEX
  8
Bottom_Silk
  10
0.2952
  20
0.5662
  42
1
  0
VERTEX
  8
Bottom_Silk
  10
0.2921
  20
0.5662
  42
1
  0
SEQEND
  0
POLYLINE
  8
Bottom_Silk
  6
CONTINUOUS
  66
1
  70
0
  40
0.0062
  41
0.0062
  0
VERTEX
  8
Bottom_Silk
  10
0.2603
  20
0.5815
  42
0
  0
VERTEX
  8
Bottom_Silk
  10
0.2622
  20
0.5853
  42
0
  0
VERTEX
  8
Bottom_Silk
  10
0.2679
  20
0.5872
  42
0
  0
VERTEX
  8
Bottom_Silk
  10
0.2737
  20
0.5872
  42
0
  0
VERTEX
  8
Bottom_Silk
  10
0.2794
  20
0.5853
  42
0
  0
VERTEX
  8
Bottom_Silk
  10
0.2813
  20
0.5815
  42
0
  0
VERTEX
  8
Bottom_Silk
  10
0.2794
  20
0.5777
  42
0
  0
VERTEX
  8
Bottom_Silk
  10
0.2756
  20
0.5758
  42
0
  0
VERTEX
  8
Bottom_Silk
  10
0.266
  20
0.5738
  42
0
  0
VERTEX
  8
Bottom_Silk
  10
0.2622
  20
0.5719
  42
0
  0
VERTEX
  8
Bottom_Silk
  10
0.2603
  20
0.5681
  42
0
  0
VERTEX
  8
Bottom_Silk
  10
0.2603
  20
0.5662
  42
0
  0
VERTEX
  8
Bottom_Silk
  10
0.2622
  20
0.5624
  42
0
  0
VERTEX
  8
Bottom_Silk
  10
0.2679
  20
0.5605
  42
0
  0
VERTEX
  8
Bottom_Silk
  10
0.2737
  20
0.5605
  42
0
  0
VERTEX
  8
Bottom_Silk
  10
0.2794
  20
0.5624
  42
0
  0
VERTEX
  8
Bottom_Silk
  10
0.2813
  20
0.5662
  42
0
  0
SEQEND
  0
POLYLINE
  8
Bottom_Silk
  6
CONTINUOUS
  66
1
  70
0
  40
0.0031
  41
0.0031
  0
VERTEX
  8
Bottom_Silk
  10
0.2587
  20
0.5815
  42
1
  0
VERTEX
  8
Bottom_Silk
  10
0.2618
  20
0.5815
  42
1
  0
VERTEX
  8
Bottom_Silk
  10
0.2587
  20
0.5815
  42
1
  0
SEQEND
  0
POLYLINE
  8
Bottom_Silk
  6
CONTINUOUS
  66
1
  70
0
  40
0.0031
  41
0.0031
  0
VERTEX
  8
Bottom_Silk
  10
0.2798
  20
0.5662
  42
1
  0
VERTEX
  8
Bottom_Silk
  10
0.2829
  20
0.5662
  42
1
  0
VERTEX
  8
Bottom_Silk
  10
0.2798
  20
0.5662
  42
1
  0
SEQEND
  0
POLYLINE
  8
Bottom_Silk
  6
CONTINUOUS
  66
1
  70
0
  40
0.0062
  41
0.0062
  0
VERTEX
  8
Bottom_Silk
  10
0.6854
  20
0.5203
  42
0
  0
VERTEX
  8
Bottom_Silk
  10
0.6777
  20
0.4935
  42
0
  0
VERTEX
  8
Bottom_Silk
  10
0.6701
  20
0.5203
  42
0
  0
VERTEX
  8
Bottom_Silk
  10
0.6624
  20
0.4935
  42
0
  0
VERTEX
  8
Bottom_Silk
  10
0.6548
  20
0.5203
  42
0
  0
SEQEND
  0
POLYLINE
  8
Bottom_Silk
  6
CONTINUOUS
  66
1
  70
0
  40
0.0031
  41
0.0031
  0
VERTEX
  8
Bottom_Silk
  10
0.6838
  20
0.5203
  42
1
  0
VERTEX
  8
Bottom_Silk
  10
0.6869
  20
0.5203
  42
1
  0
VERTEX
  8
Bottom_Silk
  10
0.6838
  20
0.5203
  42
1
  0
SEQEND
  0
POLYLINE
  8
Bottom_Silk
  6
CONTINUOUS
  66
1
  70
0
  40
0.0031
  41
0.0031
  0
VERTEX
  8
Bottom_Silk
  10
0.6532
  20
0.5203
  42
1
  0
VERTEX
  8
Bottom_Silk
  10
0.6563
  20
0.5203
  42
1
  0
VERTEX
  8
Bottom_Silk
  10
0.6532
  20
0.5203
  42
1
  0
SEQEND
  0
POLYLINE
  8
Bottom_Silk
  6
CONTINUOUS
  66
1
  70
0
  40
0.0062
  41
0.0062
  0
VERTEX
  8
Bottom_Silk
  10
0.6424
  20
0.5203
  42
0
  0
VERTEX
  8
Bottom_Silk
  10
0.6348
  20
0.4935
  42
0
  0
VERTEX
  8
Bottom_Silk
  10
0.6271
  20
0.5203
  42
0
  0
VERTEX
  8
Bottom_Silk
  10
0.6195
  20
0.4935
  42
0
  0
VERTEX
  8
Bottom_Silk
  10
0.6118
  20
0.5203
  42
0
  0
SEQEND
  0
POLYLINE
  8
Bottom_Silk
  6
CONTINUOUS
  66
1
  70
0
  40
0.0031
  41
0.0031
  0
VERTEX
  8
Bottom_Silk
  10
0.6409
  20
0.5203
  42
1
  0
VERTEX
  8
Bottom_Silk
  10
0.644
  20
0.5203
  42
1
  0
VERTEX
  8
Bottom_Silk
  10
0.6409
  20
0.5203
  42
1
  0
SEQEND
  0
POLYLINE
  8
Bottom_Silk
  6
CONTINUOUS
  66
1
  70
0
  40
0.0031
  41
0.0031
  0
VERTEX
  8
Bottom_Silk
  10
0.6103
  20
0.5203
  42
1
  0
VERTEX
  8
Bottom_Silk
  10
0.6134
  20
0.5203
  42
1
  0
VERTEX
  8
Bottom_Silk
  10
0.6103
  20
0.5203
  42
1
  0
SEQEND
  0
POLYLINE
  8
Bottom_Silk
  6
CONTINUOUS
  66
1
  70
0
  40
0.0062
  41
0.0062
  0
VERTEX
  8
Bottom_Silk
  10
0.5995
  20
0.5203
  42
0
  0
VERTEX
  8
Bottom_Silk
  10
0.5918
  20
0.4935
  42
0
  0
VERTEX
  8
Bottom_Silk
  10
0.5842
  20
0.5203
  42
0
  0
VERTEX
  8
Bottom_Silk
  10
0.5765
  20
0.4935
  42
0
  0
VERTEX
  8
Bottom_Silk
  10
0.5689
  20
0.5203
  42
0
  0
SEQEND
  0
POLYLINE
  8
Bottom_Silk
  6
CONTINUOUS
  66
1
  70
0
  40
0.0031
  41
0.0031
  0
VERTEX
  8
Bottom_Silk
  10
0.5979
  20
0.5203
  42
1
  0
VERTEX
  8
Bottom_Silk
  10
0.601
  20
0.5203
  42
1
  0
VERTEX
  8
Bottom_Silk
  10
0.5979
  20
0.5203
  42
1
  0
SEQEND
  0
POLYLINE
  8
Bottom_Silk
  6
CONTINUOUS
  66
1
  70
0
  40
0.0031
  41
0.0031
  0
VERTEX
  8
Bottom_Silk
  10
0.5673
  20
0.5203
  42
1
  0
VERTEX
  8
Bottom_Silk
  10
0.5704
  20
0.5203
  42
1
  0
VERTEX
  8
Bottom_Silk
  10
0.5673
  20
0.5203
  42
1
  0
SEQEND
  0
POLYLINE
  8
Bottom_Silk
  6
CONTINUOUS
  66
1
  70
0
  40
0.0062
  41
0.0062
  0
VERTEX
  8
Bottom_Silk
  10
0.5546
  20
0.4974
  42
0
  0
VERTEX
  8
Bottom_Silk
  10
0.5565
  20
0.4954
  42
0
  0
VERTEX
  8
Bottom_Silk
  10
0.5546
  20
0.4935
  42
0
  0
VERTEX
  8
Bottom_Silk
  10
0.5527
  20
0.4954
  42
0
  0
VERTEX
  8
Bottom_Silk
  10
0.5546
  20
0.4974
  42
0
  0
SEQEND
  0
POLYLINE
  8
Bottom_Silk
  6
CONTINUOUS
  66
1
  70
0
  40
0.0031
  41
0.0031
  0
VERTEX
  8
Bottom_Silk
  10
0.5531
  20
0.4974
  42
1
  0
VERTEX
  8
Bottom_Silk
  10
0.5562
  20
0.4974
  42
1
  0
VERTEX
  8
Bottom_Silk
  10
0.5531
  20
0.4974
  42
1
  0
SEQEND
  0
POLYLINE
  8
Bottom_Silk
  6
CONTINUOUS
  66
1
  70
0
  40
0.0062
  41
0.0062
  0
VERTEX
  8
Bottom_Silk
  10
0.5327
  20
0.5337
  42
0
  0
VERTEX
  8
Bottom_Silk
  10
0.5307
  20
0.5318
  42
0
  0
VERTEX
  8
Bottom_Silk
  10
0.5288
  20
0.5337
  42
0
  0
VERTEX
  8
Bottom_Silk
  10
0.5307
  20
0.5357
  42
0
  0
VERTEX
  8
Bottom_Silk
  10
0.5327
  20
0.5337
  42
0
  0
SEQEND
  0
POLYLINE
  8
Bottom_Silk
  6
CONTINUOUS
  66
1
  70
0
  40
0.0031
  41
0.0031
  0
VERTEX
  8
Bottom_Silk
  10
0.5311
  20
0.5337
  42
1
  0
VERTEX
  8
Bottom_Silk
  10
0.5342
  20
0.5337
  42
1
  0
VERTEX
  8
Bottom_Silk
  10
0.5311
  20
0.5337
  42
1
  0
SEQEND
  0
POLYLINE
  8
Bottom_Silk
  6
CONTINUOUS
  66
1
  70
0
  40
0.0062
  41
0.0062
  0
VERTEX
  8
Bottom_Silk
  10
0.5307
  20
0.5204
  42
0
  0
VERTEX
  8
Bottom_Silk
  10
0.5307
  20
0.4878
  42
0
  0
VERTEX
  8
Bottom_Silk
  10
0.5327
  20
0.4821
  42
0
  0
VERTEX
  8
Bottom_Silk
  10
0.5365
  20
0.4802
  42
0
  0
VERTEX
  8
Bottom_Silk
  10
0.5403
  20
0.4802
  42
0
  0
SEQEND
  0
POLYLINE
  8
Bottom_Silk
  6
CONTINUOUS
  66
1
  70
0
  40
0.0031
  41
0.0031
  0
VERTEX
  8
Bottom_Silk
  10
0.5292
  20
0.5204
  42
1
  0
VERTEX
  8
Bottom_Silk
  10
0.5323
  20
0.5204
  42
1
  0
VERTEX
  8
Bottom_Silk
  10
0.5292
  20
0.5204
  42
1
  0
SEQEND
  0
POLYLINE
  8
Bottom_Silk
  6
CONTINUOUS
  66
1
  70
0
  40
0.0031
  41
0.0031
  0
VERTEX
  8
Bottom_Silk
  10
0.5388
  20
0.4802
  42
1
  0
VERTEX
  8
Bottom_Silk
  10
0.5419
  20
0.4802
  42
1
  0
VERTEX
  8
Bottom_Silk
  10
0.5388
  20
0.4802
  42
1
  0
SEQEND
  0
POLYLINE
  8
Bottom_Silk
  6
CONTINUOUS
  66
1
  70
0
  40
0.0062
  41
0.0062
  0
VERTEX
  8
Bottom_Silk
  10
0.5165
  20
0.5337
  42
0
  0
VERTEX
  8
Bottom_Silk
  10
0.5165
  20
0.4935
  42
0
  0
SEQEND
  0
POLYLINE
  8
Bottom_Silk
  6
CONTINUOUS
  66
1
  70
0
  40
0.0031
  41
0.0031
  0
VERTEX
  8
Bottom_Silk
  10
0.5149
  20
0.5337
  42
1
  0
VERTEX
  8
Bottom_Silk
  10
0.518
  20
0.5337
  42
1
  0
VERTEX
  8
Bottom_Silk
  10
0.5149
  20
0.5337
  42
1
  0
SEQEND
  0
POLYLINE
  8
Bottom_Silk
  6
CONTINUOUS
  66
1
  70
0
  40
0.0031
  41
0.0031
  0
VERTEX
  8
Bottom_Silk
  10
0.5149
  20
0.4935
  42
1
  0
VERTEX
  8
Bottom_Silk
  10
0.518
  20
0.4935
  42
1
  0
VERTEX
  8
Bottom_Silk
  10
0.5149
  20
0.4935
  42
1
  0
SEQEND
  0
POLYLINE
  8
Bottom_Silk
  6
CONTINUOUS
  66
1
  70
0
  40
0.0062
  41
0.0062
  0
VERTEX
  8
Bottom_Silk
  10
0.4973
  20
0.5203
  42
0
  0
VERTEX
  8
Bottom_Silk
  10
0.5165
  20
0.5012
  42
0
  0
SEQEND
  0
POLYLINE
  8
Bottom_Silk
  6
CONTINUOUS
  66
1
  70
0
  40
0.0031
  41
0.0031
  0
VERTEX
  8
Bottom_Silk
  10
0.4958
  20
0.5203
  42
1
  0
VERTEX
  8
Bottom_Silk
  10
0.4989
  20
0.5203
  42
1
  0
VERTEX
  8
Bottom_Silk
  10
0.4958
  20
0.5203
  42
1
  0
SEQEND
  0
POLYLINE
  8
Bottom_Silk
  6
CONTINUOUS
  66
1
  70
0
  40
0.0031
  41
0.0031
  0
VERTEX
  8
Bottom_Silk
  10
0.5149
  20
0.5012
  42
1
  0
VERTEX
  8
Bottom_Silk
  10
0.518
  20
0.5012
  42
1
  0
VERTEX
  8
Bottom_Silk
  10
0.5149
  20
0.5012
  42
1
  0
SEQEND
  0
POLYLINE
  8
Bottom_Silk
  6
CONTINUOUS
  66
1
  70
0
  40
0.0062
  41
0.0062
  0
VERTEX
  8
Bottom_Silk
  10
0.5088
  20
0.5088
  42
0
  0
VERTEX
  8
Bottom_Silk
  10
0.4954
  20
0.4935
  42
0
  0
SEQEND
  0
POLYLINE
  8
Bottom_Silk
  6
CONTINUOUS
  66
1
  70
0
  40
0.0031
  41
0.0031
  0
VERTEX
  8
Bottom_Silk
  10
0.5073
  20
0.5088
  42
1
  0
VERTEX
  8
Bottom_Silk
  10
0.5104
  20
0.5088
  42
1
  0
VERTEX
  8
Bottom_Silk
  10
0.5073
  20
0.5088
  42
1
  0
SEQEND
  0
POLYLINE
  8
Bottom_Silk
  6
CONTINUOUS
  66
1
  70
0
  40
0.0031
  41
0.0031
  0
VERTEX
  8
Bottom_Silk
  10
0.4939
  20
0.4935
  42
1
  0
VERTEX
  8
Bottom_Silk
  10
0.497
  20
0.4935
  42
1
  0
VERTEX
  8
Bottom_Silk
  10
0.4939
  20
0.4935
  42
1
  0
SEQEND
  0
POLYLINE
  8
Bottom_Silk
  6
CONTINUOUS
  66
1
  70
0
  40
0.0062
  41
0.0062
  0
VERTEX
  8
Bottom_Silk
  10
0.4831
  20
0.5088
  42
0
  0
VERTEX
  8
Bottom_Silk
  10
0.4601
  20
0.5088
  42
0
  0
VERTEX
  8
Bottom_Silk
  10
0.4601
  20
0.5127
  42
0
  0
VERTEX
  8
Bottom_Silk
  10
0.462
  20
0.5165
  42
0
  0
VERTEX
  8
Bottom_Silk
  10
0.4639
  20
0.5184
  42
0
  0
VERTEX
  8
Bottom_Silk
  10
0.4678
  20
0.5203
  42
0
  0
VERTEX
  8
Bottom_Silk
  10
0.4735
  20
0.5203
  42
0
  0
VERTEX
  8
Bottom_Silk
  10
0.4773
  20
0.5184
  42
0
  0
VERTEX
  8
Bottom_Silk
  10
0.4812
  20
0.5146
  42
0
  0
VERTEX
  8
Bottom_Silk
  10
0.4831
  20
0.5088
  42
0
  0
VERTEX
  8
Bottom_Silk
  10
0.4831
  20
0.505
  42
0
  0
VERTEX
  8
Bottom_Silk
  10
0.4812
  20
0.4993
  42
0
  0
VERTEX
  8
Bottom_Silk
  10
0.4773
  20
0.4955
  42
0
  0
VERTEX
  8
Bottom_Silk
  10
0.4735
  20
0.4935
  42
0
  0
VERTEX
  8
Bottom_Silk
  10
0.4678
  20
0.4935
  42
0
  0
VERTEX
  8
Bottom_Silk
  10
0.4639
  20
0.4955
  42
0
  0
VERTEX
  8
Bottom_Silk
  10
0.4601
  20
0.4993
  42
0
  0
SEQEND
  0
POLYLINE
  8
Bottom_Silk
  6
CONTINUOUS
  66
1
  70
0
  40
0.0031
  41
0.0031
  0
VERTEX
  8
Bottom_Silk
  10
0.4815
  20
0.5088
  42
1
  0
VERTEX
  8
Bottom_Silk
  10
0.4846
  20
0.5088
  42
1
  0
VERTEX
  8
Bottom_Silk
  10
0.4815
  20
0.5088
  42
1
  0
SEQEND
  0
POLYLINE
  8
Bottom_Silk
  6
CONTINUOUS
  66
1
  70
0
  40
0.0031
  41
0.0031
  0
VERTEX
  8
Bottom_Silk
  10
0.4586
  20
0.4993
  42
1
  0
VERTEX
  8
Bottom_Silk
  10
0.4617
  20
0.4993
  42
1
  0
VERTEX
  8
Bottom_Silk
  10
0.4586
  20
0.4993
  42
1
  0
SEQEND
  0
POLYLINE
  8
Bottom_Silk
  6
CONTINUOUS
  66
1
  70
0
  40
0.0062
  41
0.0062
  0
VERTEX
  8
Bottom_Silk
  10
0.4478
  20
0.5337
  42
0
  0
VERTEX
  8
Bottom_Silk
  10
0.4478
  20
0.4935
  42
0
  0
SEQEND
  0
POLYLINE
  8
Bottom_Silk
  6
CONTINUOUS
  66
1
  70
0
  40
0.0031
  41
0.0031
  0
VERTEX
  8
Bottom_Silk
  10
0.4462
  20
0.5337
  42
1
  0
VERTEX
  8
Bottom_Silk
  10
0.4493
  20
0.5337
  42
1
  0
VERTEX
  8
Bottom_Silk
  10
0.4462
  20
0.5337
  42
1
  0
SEQEND
  0
POLYLINE
  8
Bottom_Silk
  6
CONTINUOUS
  66
1
  70
0
  40
0.0031
  41
0.0031
  0
VERTEX
  8
Bottom_Silk
  10
0.4462
  20
0.4935
  42
1
  0
VERTEX
  8
Bottom_Silk
  10
0.4493
  20
0.4935
  42
1
  0
VERTEX
  8
Bottom_Silk
  10
0.4462
  20
0.4935
  42
1
  0
SEQEND
  0
POLYLINE
  8
Bottom_Silk
  6
CONTINUOUS
  66
1
  70
0
  40
0.0062
  41
0.0062
  0
VERTEX
  8
Bottom_Silk
  10
0.4354
  20
0.5088
  42
0
  0
VERTEX
  8
Bottom_Silk
  10
0.4125
  20
0.5088
  42
0
  0
VERTEX
  8
Bottom_Silk
  10
0.4125
  20
0.5127
  42
0
  0
VERTEX
  8
Bottom_Silk
  10
0.4144
  20
0.5165
  42
0
  0
VERTEX
  8
Bottom_Silk
  10
0.4163
  20
0.5184
  42
0
  0
VERTEX
  8
Bottom_Silk
  10
0.4201
  20
0.5203
  42
0
  0
VERTEX
  8
Bottom_Silk
  10
0.4259
  20
0.5203
  42
0
  0
VERTEX
  8
Bottom_Silk
  10
0.4297
  20
0.5184
  42
0
  0
VERTEX
  8
Bottom_Silk
  10
0.4335
  20
0.5146
  42
0
  0
VERTEX
  8
Bottom_Silk
  10
0.4354
  20
0.5088
  42
0
  0
VERTEX
  8
Bottom_Silk
  10
0.4354
  20
0.505
  42
0
  0
VERTEX
  8
Bottom_Silk
  10
0.4335
  20
0.4993
  42
0
  0
VERTEX
  8
Bottom_Silk
  10
0.4297
  20
0.4955
  42
0
  0
VERTEX
  8
Bottom_Silk
  10
0.4259
  20
0.4935
  42
0
  0
VERTEX
  8
Bottom_Silk
  10
0.4201
  20
0.4935
  42
0
  0
VERTEX
  8
Bottom_Silk
  10
0.4163
  20
0.4955
  42
0
  0
VERTEX
  8
Bottom_Silk
  10
0.4125
  20
0.4993
  42
0
  0
SEQEND
  0
POLYLINE
  8
Bottom_Silk
  6
CONTINUOUS
  66
1
  70
0
  40
0.0031
  41
0.0031
  0
VERTEX
  8
Bottom_Silk
  10
0.4339
  20
0.5088
  42
1
  0
VERTEX
  8
Bottom_Silk
  10
0.437
  20
0.5088
  42
1
  0
VERTEX
  8
Bottom_Silk
  10
0.4339
  20
0.5088
  42
1
  0
SEQEND
  0
POLYLINE
  8
Bottom_Silk
  6
CONTINUOUS
  66
1
  70
0
  40
0.0031
  41
0.0031
  0
VERTEX
  8
Bottom_Silk
  10
0.4109
  20
0.4993
  42
1
  0
VERTEX
  8
Bottom_Silk
  10
0.414
  20
0.4993
  42
1
  0
VERTEX
  8
Bottom_Silk
  10
0.4109
  20
0.4993
  42
1
  0
SEQEND
  0
POLYLINE
  8
Bottom_Silk
  6
CONTINUOUS
  66
1
  70
0
  40
0.0062
  41
0.0062
  0
VERTEX
  8
Bottom_Silk
  10
0.3771
  20
0.5146
  42
0
  0
VERTEX
  8
Bottom_Silk
  10
0.381
  20
0.5184
  42
0
  0
VERTEX
  8
Bottom_Silk
  10
0.3848
  20
0.5203
  42
0
  0
VERTEX
  8
Bottom_Silk
  10
0.3905
  20
0.5203
  42
0
  0
VERTEX
  8
Bottom_Silk
  10
0.3944
  20
0.5184
  42
0
  0
VERTEX
  8
Bottom_Silk
  10
0.3982
  20
0.5146
  42
0
  0
VERTEX
  8
Bottom_Silk
  10
0.4001
  20
0.5088
  42
0
  0
VERTEX
  8
Bottom_Silk
  10
0.4001
  20
0.505
  42
0
  0
VERTEX
  8
Bottom_Silk
  10
0.3982
  20
0.4993
  42
0
  0
VERTEX
  8
Bottom_Silk
  10
0.3944
  20
0.4955
  42
0
  0
VERTEX
  8
Bottom_Silk
  10
0.3905
  20
0.4935
  42
0
  0
VERTEX
  8
Bottom_Silk
  10
0.3848
  20
0.4935
  42
0
  0
VERTEX
  8
Bottom_Silk
  10
0.381
  20
0.4955
  42
0
  0
VERTEX
  8
Bottom_Silk
  10
0.3771
  20
0.4993
  42
0
  0
SEQEND
  0
POLYLINE
  8
Bottom_Silk
  6
CONTINUOUS
  66
1
  70
0
  40
0.0031
  41
0.0031
  0
VERTEX
  8
Bottom_Silk
  10
0.3756
  20
0.5146
  42
1
  0
VERTEX
  8
Bottom_Silk
  10
0.3787
  20
0.5146
  42
1
  0
VERTEX
  8
Bottom_Silk
  10
0.3756
  20
0.5146
  42
1
  0
SEQEND
  0
POLYLINE
  8
Bottom_Silk
  6
CONTINUOUS
  66
1
  70
0
  40
0.0031
  41
0.0031
  0
VERTEX
  8
Bottom_Silk
  10
0.3756
  20
0.4993
  42
1
  0
VERTEX
  8
Bottom_Silk
  10
0.3787
  20
0.4993
  42
1
  0
VERTEX
  8
Bottom_Silk
  10
0.3756
  20
0.4993
  42
1
  0
SEQEND
  0
POLYLINE
  8
Bottom_Silk
  6
CONTINUOUS
  66
1
  70
0
  40
0.0062
  41
0.0062
  0
VERTEX
  8
Bottom_Silk
  10
0.3629
  20
0.4974
  42
0
  0
VERTEX
  8
Bottom_Silk
  10
0.3648
  20
0.4954
  42
0
  0
VERTEX
  8
Bottom_Silk
  10
0.3629
  20
0.4935
  42
0
  0
VERTEX
  8
Bottom_Silk
  10
0.3609
  20
0.4954
  42
0
  0
VERTEX
  8
Bottom_Silk
  10
0.3629
  20
0.4974
  42
0
  0
SEQEND
  0
POLYLINE
  8
Bottom_Silk
  6
CONTINUOUS
  66
1
  70
0
  40
0.0031
  41
0.0031
  0
VERTEX
  8
Bottom_Silk
  10
0.3613
  20
0.4974
  42
1
  0
VERTEX
  8
Bottom_Silk
  10
0.3644
  20
0.4974
  42
1
  0
VERTEX
  8
Bottom_Silk
  10
0.3613
  20
0.4974
  42
1
  0
SEQEND
  0
POLYLINE
  8
Bottom_Silk
  6
CONTINUOUS
  66
1
  70
0
  40
0.0062
  41
0.0062
  0
VERTEX
  8
Bottom_Silk
  10
0.3256
  20
0.5146
  42
0
  0
VERTEX
  8
Bottom_Silk
  10
0.3294
  20
0.5184
  42
0
  0
VERTEX
  8
Bottom_Silk
  10
0.3333
  20
0.5203
  42
0
  0
VERTEX
  8
Bottom_Silk
  10
0.339
  20
0.5203
  42
0
  0
VERTEX
  8
Bottom_Silk
  10
0.3428
  20
0.5184
  42
0
  0
VERTEX
  8
Bottom_Silk
  10
0.3466
  20
0.5146
  42
0
  0
VERTEX
  8
Bottom_Silk
  10
0.3486
  20
0.5088
  42
0
  0
VERTEX
  8
Bottom_Silk
  10
0.3486
  20
0.505
  42
0
  0
VERTEX
  8
Bottom_Silk
  10
0.3466
  20
0.4993
  42
0
  0
VERTEX
  8
Bottom_Silk
  10
0.3428
  20
0.4955
  42
0
  0
VERTEX
  8
Bottom_Silk
  10
0.339
  20
0.4935
  42
0
  0
VERTEX
  8
Bottom_Silk
  10
0.3333
  20
0.4935
  42
0
  0
VERTEX
  8
Bottom_Silk
  10
0.3294
  20
0.4955
  42
0
  0
VERTEX
  8
Bottom_Silk
  10
0.3256
  20
0.4993
  42
0
  0
SEQEND
  0
POLYLINE
  8
Bottom_Silk
  6
CONTINUOUS
  66
1
  70
0
  40
0.0031
  41
0.0031
  0
VERTEX
  8
Bottom_Silk
  10
0.324
  20
0.5146
  42
1
  0
VERTEX
  8
Bottom_Silk
  10
0.3271
  20
0.5146
  42
1
  0
VERTEX
  8
Bottom_Silk
  10
0.324
  20
0.5146
  42
1
  0
SEQEND
  0
POLYLINE
  8
Bottom_Silk
  6
CONTINUOUS
  66
1
  70
0
  40
0.0031
  41
0.0031
  0
VERTEX
  8
Bottom_Silk
  10
0.324
  20
0.4993
  42
1
  0
VERTEX
  8
Bottom_Silk
  10
0.3271
  20
0.4993
  42
1
  0
VERTEX
  8
Bottom_Silk
  10
0.324
  20
0.4993
  42
1
  0
SEQEND
  0
POLYLINE
  8
Bottom_Silk
  6
CONTINUOUS
  66
1
  70
0
  40
0.0062
  41
0.0062
  0
VERTEX
  8
Bottom_Silk
  10
0.3037
  20
0.5203
  42
0
  0
VERTEX
  8
Bottom_Silk
  10
0.3075
  20
0.5184
  42
0
  0
VERTEX
  8
Bottom_Silk
  10
0.3113
  20
0.5146
  42
0
  0
VERTEX
  8
Bottom_Silk
  10
0.3132
  20
0.5088
  42
0
  0
VERTEX
  8
Bottom_Silk
  10
0.3132
  20
0.505
  42
0
  0
VERTEX
  8
Bottom_Silk
  10
0.3113
  20
0.4993
  42
0
  0
VERTEX
  8
Bottom_Silk
  10
0.3075
  20
0.4955
  42
0
  0
VERTEX
  8
Bottom_Silk
  10
0.3037
  20
0.4935
  42
0
  0
VERTEX
  8
Bottom_Silk
  10
0.2979
  20
0.4935
  42
0
  0
VERTEX
  8
Bottom_Silk
  10
0.2941
  20
0.4955
  42
0
  0
VERTEX
  8
Bottom_Silk
  10
0.2903
  20
0.4993
  42
0
  0
VERTEX
  8
Bottom_Silk
  10
0.2883
  20
0.505
  42
0
  0
VERTEX
  8
Bottom_Silk
  10
0.2883
  20
0.5088
  42
0
  0
VERTEX
  8
Bottom_Silk
  10
0.2903
  20
0.5146
  42
0
  0
VERTEX
  8
Bottom_Silk
  10
0.2941
  20
0.5184
  42
0
  0
VERTEX
  8
Bottom_Silk
  10
0.2979
  20
0.5203
  42
0
  0
VERTEX
  8
Bottom_Silk
  10
0.3037
  20
0.5203
  42
0
  0
SEQEND
  0
POLYLINE
  8
Bottom_Silk
  6
CONTINUOUS
  66
1
  70
0
  40
0.0031
  41
0.0031
  0
VERTEX
  8
Bottom_Silk
  10
0.3021
  20
0.5203
  42
1
  0
VERTEX
  8
Bottom_Silk
  10
0.3052
  20
0.5203
  42
1
  0
VERTEX
  8
Bottom_Silk
  10
0.3021
  20
0.5203
  42
1
  0
SEQEND
  0
POLYLINE
  8
Bottom_Silk
  6
CONTINUOUS
  66
1
  70
0
  40
0.0062
  41
0.0062
  0
VERTEX
  8
Bottom_Silk
  10
0.2741
  20
0.4974
  42
0
  0
VERTEX
  8
Bottom_Silk
  10
0.276
  20
0.4954
  42
0
  0
VERTEX
  8
Bottom_Silk
  10
0.2741
  20
0.4935
  42
0
  0
VERTEX
  8
Bottom_Silk
  10
0.2721
  20
0.4954
  42
0
  0
VERTEX
  8
Bottom_Silk
  10
0.2741
  20
0.4974
  42
0
  0
SEQEND
  0
POLYLINE
  8
Bottom_Silk
  6
CONTINUOUS
  66
1
  70
0
  40
0.0031
  41
0.0031
  0
VERTEX
  8
Bottom_Silk
  10
0.2726
  20
0.4974
  42
1
  0
VERTEX
  8
Bottom_Silk
  10
0.2756
  20
0.4974
  42
1
  0
VERTEX
  8
Bottom_Silk
  10
0.2726
  20
0.4974
  42
1
  0
SEQEND
  0
POLYLINE
  8
Bottom_Silk
  6
CONTINUOUS
  66
1
  70
0
  40
0.0062
  41
0.0062
  0
VERTEX
  8
Bottom_Silk
  10
0.2598
  20
0.5337
  42
0
  0
VERTEX
  8
Bottom_Silk
  10
0.2598
  20
0.4935
  42
0
  0
SEQEND
  0
POLYLINE
  8
Bottom_Silk
  6
CONTINUOUS
  66
1
  70
0
  40
0.0031
  41
0.0031
  0
VERTEX
  8
Bottom_Silk
  10
0.2583
  20
0.5337
  42
1
  0
VERTEX
  8
Bottom_Silk
  10
0.2613
  20
0.5337
  42
1
  0
VERTEX
  8
Bottom_Silk
  10
0.2583
  20
0.5337
  42
1
  0
SEQEND
  0
POLYLINE
  8
Bottom_Silk
  6
CONTINUOUS
  66
1
  70
0
  40
0.0031
  41
0.0031
  0
VERTEX
  8
Bottom_Silk
  10
0.2583
  20
0.4935
  42
1
  0
VERTEX
  8
Bottom_Silk
  10
0.2613
  20
0.4935
  42
1
  0
VERTEX
  8
Bottom_Silk
  10
0.2583
  20
0.4935
  42
1
  0
SEQEND
  0
POLYLINE
  8
Bottom_Silk
  6
CONTINUOUS
  66
1
  70
0
  40
0.0062
  41
0.0062
  0
VERTEX
  8
Bottom_Silk
  10
0.2407
  20
0.5203
  42
0
  0
VERTEX
  8
Bottom_Silk
  10
0.2598
  20
0.5012
  42
0
  0
SEQEND
  0
POLYLINE
  8
Bottom_Silk
  6
CONTINUOUS
  66
1
  70
0
  40
0.0031
  41
0.0031
  0
VERTEX
  8
Bottom_Silk
  10
0.2391
  20
0.5203
  42
1
  0
VERTEX
  8
Bottom_Silk
  10
0.2422
  20
0.5203
  42
1
  0
VERTEX
  8
Bottom_Silk
  10
0.2391
  20
0.5203
  42
1
  0
SEQEND
  0
POLYLINE
  8
Bottom_Silk
  6
CONTINUOUS
  66
1
  70
0
  40
0.0031
  41
0.0031
  0
VERTEX
  8
Bottom_Silk
  10
0.2583
  20
0.5012
  42
1
  0
VERTEX
  8
Bottom_Silk
  10
0.2613
  20
0.5012
  42
1
  0
VERTEX
  8
Bottom_Silk
  10
0.2583
  20
0.5012
  42
1
  0
SEQEND
  0
POLYLINE
  8
Bottom_Silk
  6
CONTINUOUS
  66
1
  70
0
  40
0.0062
  41
0.0062
  0
VERTEX
  8
Bottom_Silk
  10
0.2521
  20
0.5088
  42
0
  0
VERTEX
  8
Bottom_Silk
  10
0.2388
  20
0.4935
  42
0
  0
SEQEND
  0
POLYLINE
  8
Bottom_Silk
  6
CONTINUOUS
  66
1
  70
0
  40
0.0031
  41
0.0031
  0
VERTEX
  8
Bottom_Silk
  10
0.2506
  20
0.5088
  42
1
  0
VERTEX
  8
Bottom_Silk
  10
0.2537
  20
0.5088
  42
1
  0
VERTEX
  8
Bottom_Silk
  10
0.2506
  20
0.5088
  42
1
  0
SEQEND
  0
POLYLINE
  8
Bottom_Silk
  6
CONTINUOUS
  66
1
  70
0
  40
0.0031
  41
0.0031
  0
VERTEX
  8
Bottom_Silk
  10
0.2372
  20
0.4935
  42
1
  0
VERTEX
  8
Bottom_Silk
  10
0.2403
  20
0.4935
  42
1
  0
VERTEX
  8
Bottom_Silk
  10
0.2372
  20
0.4935
  42
1
  0
SEQEND
  0
POLYLINE
  8
Bottom_Silk
  6
CONTINUOUS
  66
1
  70
0
  40
0.0062
  41
0.0062
  0
VERTEX
  8
Bottom_Silk
  10
0.2264
  20
0.5203
  42
0
  0
VERTEX
  8
Bottom_Silk
  10
0.2264
  20
0.4935
  42
0
  0
SEQEND
  0
POLYLINE
  8
Bottom_Silk
  6
CONTINUOUS
  66
1
  70
0
  40
0.0031
  41
0.0031
  0
VERTEX
  8
Bottom_Silk
  10
0.2249
  20
0.5203
  42
1
  0
VERTEX
  8
Bottom_Silk
  10
0.2279
  20
0.5203
  42
1
  0
VERTEX
  8
Bottom_Silk
  10
0.2249
  20
0.5203
  42
1
  0
SEQEND
  0
POLYLINE
  8
Bottom_Silk
  6
CONTINUOUS
  66
1
  70
0
  40
0.0031
  41
0.0031
  0
VERTEX
  8
Bottom_Silk
  10
0.2249
  20
0.4935
  42
1
  0
VERTEX
  8
Bottom_Silk
  10
0.2279
  20
0.4935
  42
1
  0
VERTEX
  8
Bottom_Silk
  10
0.2249
  20
0.4935
  42
1
  0
SEQEND
  0
POLYLINE
  8
Bottom_Silk
  6
CONTINUOUS
  66
1
  70
0
  40
0.0062
  41
0.0062
  0
VERTEX
  8
Bottom_Silk
  10
0.2264
  20
0.5088
  42
0
  0
VERTEX
  8
Bottom_Silk
  10
0.2245
  20
0.5146
  42
0
  0
VERTEX
  8
Bottom_Silk
  10
0.2207
  20
0.5184
  42
0
  0
VERTEX
  8
Bottom_Silk
  10
0.2168
  20
0.5203
  42
0
  0
VERTEX
  8
Bottom_Silk
  10
0.2111
  20
0.5203
  42
0
  0
SEQEND
  0
POLYLINE
  8
Bottom_Silk
  6
CONTINUOUS
  66
1
  70
0
  40
0.0031
  41
0.0031
  0
VERTEX
  8
Bottom_Silk
  10
0.2249
  20
0.5088
  42
1
  0
VERTEX
  8
Bottom_Silk
  10
0.2279
  20
0.5088
  42
1
  0
VERTEX
  8
Bottom_Silk
  10
0.2249
  20
0.5088
  42
1
  0
SEQEND
  0
POLYLINE
  8
Bottom_Silk
  6
CONTINUOUS
  66
1
  70
0
  40
0.0031
  41
0.0031
  0
VERTEX
  8
Bottom_Silk
  10
0.2095
  20
0.5203
  42
1
  0
VERTEX
  8
Bottom_Silk
  10
0.2126
  20
0.5203
  42
1
  0
VERTEX
  8
Bottom_Silk
  10
0.2095
  20
0.5203
  42
1
  0
SEQEND
  0
POLYLINE
  8
Bottom_Silk
  6
CONTINUOUS
  66
1
  70
0
  40
0.0062
  41
0.0062
  0
VERTEX
  8
Bottom_Silk
  10
0.3405
  20
0.438
  42
0
  0
VERTEX
  8
Bottom_Silk
  10
0.3252
  20
0.3978
  42
0
  0
VERTEX
  8
Bottom_Silk
  10
0.3099
  20
0.438
  42
0
  0
SEQEND
  0
POLYLINE
  8
Bottom_Silk
  6
CONTINUOUS
  66
1
  70
0
  40
0.0031
  41
0.0031
  0
VERTEX
  8
Bottom_Silk
  10
0.339
  20
0.438
  42
1
  0
VERTEX
  8
Bottom_Silk
  10
0.3421
  20
0.438
  42
1
  0
VERTEX
  8
Bottom_Silk
  10
0.339
  20
0.438
  42
1
  0
SEQEND
  0
POLYLINE
  8
Bottom_Silk
  6
CONTINUOUS
  66
1
  70
0
  40
0.0031
  41
0.0031
  0
VERTEX
  8
Bottom_Silk
  10
0.3084
  20
0.438
  42
1
  0
VERTEX
  8
Bottom_Silk
  10
0.3115
  20
0.438
  42
1
  0
VERTEX
  8
Bottom_Silk
  10
0.3084
  20
0.438
  42
1
  0
SEQEND
  0
POLYLINE
  8
Bottom_Silk
  6
CONTINUOUS
  66
1
  70
0
  40
0.0062
  41
0.0062
  0
VERTEX
  8
Bottom_Silk
  10
0.2976
  20
0.4303
  42
0
  0
VERTEX
  8
Bottom_Silk
  10
0.2937
  20
0.4322
  42
0
  0
VERTEX
  8
Bottom_Silk
  10
0.288
  20
0.4379
  42
0
  0
VERTEX
  8
Bottom_Silk
  10
0.288
  20
0.3978
  42
0
  0
SEQEND
  0
POLYLINE
  8
Bottom_Silk
  6
CONTINUOUS
  66
1
  70
0
  40
0.0031
  41
0.0031
  0
VERTEX
  8
Bottom_Silk
  10
0.296
  20
0.4303
  42
1
  0
VERTEX
  8
Bottom_Silk
  10
0.2991
  20
0.4303
  42
1
  0
VERTEX
  8
Bottom_Silk
  10
0.296
  20
0.4303
  42
1
  0
SEQEND
  0
POLYLINE
  8
Bottom_Silk
  6
CONTINUOUS
  66
1
  70
0
  40
0.0031
  41
0.0031
  0
VERTEX
  8
Bottom_Silk
  10
0.2865
  20
0.3978
  42
1
  0
VERTEX
  8
Bottom_Silk
  10
0.2895
  20
0.3978
  42
1
  0
VERTEX
  8
Bottom_Silk
  10
0.2865
  20
0.3978
  42
1
  0
SEQEND
  0
POLYLINE
  8
Bottom_Silk
  6
CONTINUOUS
  66
1
  70
0
  40
0.0062
  41
0.0062
  0
VERTEX
  8
Bottom_Silk
  10
0.2737
  20
0.4016
  42
0
  0
VERTEX
  8
Bottom_Silk
  10
0.2756
  20
0.3997
  42
0
  0
VERTEX
  8
Bottom_Silk
  10
0.2737
  20
0.3978
  42
0
  0
VERTEX
  8
Bottom_Silk
  10
0.2718
  20
0.3997
  42
0
  0
VERTEX
  8
Bottom_Silk
  10
0.2737
  20
0.4016
  42
0
  0
SEQEND
  0
POLYLINE
  8
Bottom_Silk
  6
CONTINUOUS
  66
1
  70
0
  40
0.0031
  41
0.0031
  0
VERTEX
  8
Bottom_Silk
  10
0.2722
  20
0.4016
  42
1
  0
VERTEX
  8
Bottom_Silk
  10
0.2753
  20
0.4016
  42
1
  0
VERTEX
  8
Bottom_Silk
  10
0.2722
  20
0.4016
  42
1
  0
SEQEND
  0
POLYLINE
  8
Bottom_Silk
  6
CONTINUOUS
  66
1
  70
0
  40
0.0062
  41
0.0062
  0
VERTEX
  8
Bottom_Silk
  10
0.2479
  20
0.4379
  42
0
  0
VERTEX
  8
Bottom_Silk
  10
0.2537
  20
0.436
  42
0
  0
VERTEX
  8
Bottom_Silk
  10
0.2575
  20
0.4303
  42
0
  0
VERTEX
  8
Bottom_Silk
  10
0.2594
  20
0.4207
  42
0
  0
VERTEX
  8
Bottom_Silk
  10
0.2594
  20
0.415
  42
0
  0
VERTEX
  8
Bottom_Silk
  10
0.2575
  20
0.4054
  42
0
  0
VERTEX
  8
Bottom_Silk
  10
0.2537
  20
0.3997
  42
0
  0
VERTEX
  8
Bottom_Silk
  10
0.2479
  20
0.3978
  42
0
  0
VERTEX
  8
Bottom_Silk
  10
0.2441
  20
0.3978
  42
0
  0
VERTEX
  8
Bottom_Silk
  10
0.2384
  20
0.3997
  42
0
  0
VERTEX
  8
Bottom_Silk
  10
0.2346
  20
0.4054
  42
0
  0
VERTEX
  8
Bottom_Silk
  10
0.2327
  20
0.415
  42
0
  0
VERTEX
  8
Bottom_Silk
  10
0.2327
  20
0.4207
  42
0
  0
VERTEX
  8
Bottom_Silk
  10
0.2346
  20
0.4303
  42
0
  0
VERTEX
  8
Bottom_Silk
  10
0.2384
  20
0.436
  42
0
  0
VERTEX
  8
Bottom_Silk
  10
0.2441
  20
0.4379
  42
0
  0
VERTEX
  8
Bottom_Silk
  10
0.2479
  20
0.4379
  42
0
  0
SEQEND
  0
POLYLINE
  8
Bottom_Silk
  6
CONTINUOUS
  66
1
  70
0
  40
0.0031
  41
0.0031
  0
VERTEX
  8
Bottom_Silk
  10
0.2464
  20
0.4379
  42
1
  0
VERTEX
  8
Bottom_Silk
  10
0.2495
  20
0.4379
  42
1
  0
VERTEX
  8
Bottom_Silk
  10
0.2464
  20
0.4379
  42
1
  0
SEQEND
  0
POLYLINE
  8
Bottom_Silk
  6
CONTINUOUS
  66
1
  70
0
  40
0.0062
  41
0.0062
  0
VERTEX
  8
Bottom_Silk
  10
0.2346
  20
0.4303
  42
0
  0
VERTEX
  8
Bottom_Silk
  10
0.2575
  20
0.4054
  42
0
  0
SEQEND
  0
POLYLINE
  8
Bottom_Silk
  6
CONTINUOUS
  66
1
  70
0
  40
0.0031
  41
0.0031
  0
VERTEX
  8
Bottom_Silk
  10
0.2331
  20
0.4303
  42
1
  0
VERTEX
  8
Bottom_Silk
  10
0.2361
  20
0.4303
  42
1
  0
VERTEX
  8
Bottom_Silk
  10
0.2331
  20
0.4303
  42
1
  0
SEQEND
  0
POLYLINE
  8
Bottom_Silk
  6
CONTINUOUS
  66
1
  70
0
  40
0.0031
  41
0.0031
  0
VERTEX
  8
Bottom_Silk
  10
0.256
  20
0.4054
  42
1
  0
VERTEX
  8
Bottom_Silk
  10
0.2591
  20
0.4054
  42
1
  0
VERTEX
  8
Bottom_Silk
  10
0.256
  20
0.4054
  42
1
  0
SEQEND
  0
ENDSEC
  0
EOF
